Oops, an error
Loading. Please wait.

Next Year Tab

14,335 views 36 this week
2 commentsread comments
1 2 3 4 5
excellent!
x 7
add to favorites
launch autoscroll
font size
0
reset
how to read this tab
guitar tuner
Tab Pro tools
  • play this tab
  • loop segment
  • change instrument
  • show fretboard
  • metronome
×
Best way to learn
"Next Year"
Autoscroll
slow
fast
+/-
esc
set tempo
stop
Contributor
Difficulty
intermediate
-------------------------------------------------------------------------------
                     Two Door Cinema Club - Next Year
-------------------------------------------------------------------------------
Tabbed by: Ace

Tuning: Standard
  This tab is based on their Last.FM performance.
Some important chords:
   A5  G5  A/C#  A#  Dmaj7  D7
e|-x---x---x-----x---2------2------------------------------------------------|
B|-x---3---2-----3---2------1------------------------------------------------|
G|-2---0---2-----x---2------2------------------------------------------------|
D|-2---0---2-----3---0------0------------------------------------------------|
A|-0---x---4-----1-----------------------------------------------------------|
E|-x---3---------x-----------------------------------------------------------|


Rhythm Guitar-
Intro:

   I don't know where I am going to rest my head tonight
e|---------------------------------------------------------------------------|
B|---------------------------------------------------------------------------|
G|---------------------------------------------------------------------------|
D|---------------------------------------------------------------------------|
A|-2~-----------------0~-----------------------------------------------------|
E|----------------------------------3~------------------0~-------------------|
   So I won't promise that I'll speak to you today
e|---------------------------------------------------------------------------|
B|---------------------------------------------------------------------------|
G|---------------------------------------------------------------------------|
D|--------------0~-----------------------------------------------------------|
A|-------------------------------2~------------------------------------------|
E|---------------------------------------------2~------------2~--------------|

Verse:

     Bm         A5
 But if I ever find
         G5
 Another place
          Em
 A better time
          D            Bm           A5
 For that moment I was never what I am


Prechorus:

 Em                (D/F#) G5
 Take to me to where you  are
             Bm
 What you've become
     A/C#          D      D/F#  Em
 And what you will do when I am gone
            A5              Gm
 I won't forget, I won't forget


Chorus:

          D
 Maybe someday
              Gm 
 You'll be somewhere
          Bm
 Talking to me
             F#m
 As if you knew me
        G5                 Em
 Saying I'll be home for next year, darling
    G5              Gm
 I'll be home for next year


Post-Chorus: D, Gm x4


Verse:

 Bm              A5
 In between the lines
        G5                Em
 Is the only place you'll find
             D               Bm              F#m
 What you're missing but you didn't know was there
    Bm           A5
 So when I say goodbye
          G5              Em
 You must do your best to try
     D               Bm
 And forgive me this weakness
      A5
 This weakness


Pre-Chorus:
 
       Em             (D/F#) G5
'Cause I don't know what to say
         Bm
 Another day
  A/C#     D          D/F#      Em 
 Another excuse to be sent your way
         A5
 Another day
         Gm
 Another year


Chorus:

          D
 Maybe someday
              Gm 
 You'll be somewhere
          Bm
 Talking to me
             F#m
 As if you knew me
        G5                 Em
 Saying I'll be home for next year, darling
    G               Gm
 I'll be home for next year

              D 
 And maybe sometime
         Gm
 In a long time
          Bm
 You'll remember
              F#m
 What I had said there
          G5               Em
 I said I'll be home for next year, darling
   G5               Gm
 I'll be home for next year


Post-Chorus: D


Bridge:
 D   Dmaj7 D7       G
 If  You   Think of Me
 Gm              A5
 I will think of you

Chorus:
          D
 Maybe someday
              Gm 
 You'll be somewhere
          Bm
 Talking to me
             F#m
 As if you knew me
        G5                 Em
 Saying I'll be home for next year, darling
    G5              Gm
 I'll be home for next year

          Bm
 Maybe sometime
           A#
 In a long time
          D
 You'll remember
             Em       
 What I had said there
        G                   Gm
 I said I'll be home for next year

          D
 Maybe someday
              Gm 
 You'll be somewhere
          Bm
 Talking to me
             F#m
 As if you knew me
        G                  Em
 Saying I'll be home for next year, darling
    G               Gm          D~
 I'll be home for next year
_________________________________________________________________________________

Lead Guitar (listen to the song for the rhythm)-

Verse:
e|----10--------------------------10-----------------------------------------|
B|-12-x-----10--12-12-12-12-12-12-x-----10\----------------------------------|
G|-11-11-11-11--11-11-11-11-11-11-11-11-11\----------------------------------|
D|-------12--------------------------12--------------------------------------|
A|---------------------------------------------------------------------------|
E|---------------------------------------------------------------------------|
Pre-Chorus:
e|-7-7-7----10/----7-7-7----10/----14-12----12/14-12----12-------------------|
B|-7-7-7----12/----7-7-7----12/----------15----------15----------12-12\7-----|
G|-7-7-7----11/----7-7-7----11/----------------------------14-14-------------|
D|-9-9-9-----------9-9-9-----------------------------------------------------|
A|---------------------------------------------------------------------------|
E|---------------------------------------------------------------------------|

e|-14-14-14-14-14-14-14-14-14-14-14------------------------------------------|
B|-12-12-12-12-12-12-12-12-12-12-12------------------------------------------|
G|---------------------------------------------------------------------------|
D|--------------------------------------7---------7-4-------7---------7-4----|
A|----------------------------------555---5-5-555-------555---5-5-555--------|
E|---------------------------------------------------------------------------|

Chorus:
e|-19-17-19----19-17-19-------------------19-17-19----19-17-19----17-15-14---|
B|----------19----------19--19-17-15/17------------19----------19------------|
G|---------------------------------------------------------------------------|
D|---------------------------------------------------------------------------|
A|---------------------------------------------------------------------------|
E|---------------------------------------------------------------------------|

e|-19-17-19----19-17-19------------------------------------------------------|
B|----------19----------19--19-17-15/17----19-17-15/17-------17-19-----------|
G|--------------------------------------------------------19-----------------|
D|---------------------------------------------------------------------------|
A|---------------------------------------------------------------------------|
E|---------------------------------------------------------------------------|

Post-Chorus:
e|---------------------------------------------------------------------------|
B|-15-17-19~---15-17-19~---15-17-19~---15-17-19~---15-17-19~---15-17-19~-----|
G|---------------------------------------------------------------------------|
D|---------------------------------------------------------------------------|
A|---------------------------------------------------------------------------|
E|---------------------------------------------------------------------------|



************************************

| /   slide up
| \   slide down
| h   hammer-on
| p   pull-off
| ~   vibrato
| +   harmonic
| x   Mute note
| b   Bend
| pb  Pre-bend
| br  Bend release
| pbr Pre-bend release
| brb Bend release bend

************************************
comments
print report bad tab
2 comments total.
0 reply
lion1 wrote on November 9 2012, 11:50 pm

spot on! thanks so much!

0 reply
CrazyYaz wrote on December 15 2012, 12:04 pm

lovely tab. Did you tab it from the live webcast version in Boch Studio? I was about to tab the same thing hah

I want to post or [tab]
guest
You may want to rate the tab now too:
select rating
Please do not post tabs as comments. Select "correction" instead!