Oops, an error
Loading. Please wait.

Next Year bass

910 views 21 this week
2 commentsread comments
1 2 3 4 5
2 more votes to show rating
add to favorites
×
Save as Personal and add changes to this tab that will be seen only by you. Learn more ›
×
You can save this tab as Personal to edit and correct it or add notes. All changes will be seen only by you. Learn more »
launch autoscroll
font size
0
reset
guitar tuner
edit
Autoscroll
slow
fast
+/-
esc
set tempo
stop
Author
Difficulty
-------------------------------------------------------------------------------
                             NEXT YEAR - Two Door Cinema Club
-------------------------------------------------------------------------------
Tabbed by: nothozier 
Check out the guys!
https://www.youtube.com/watch?v=NiFnt9ORVt0

Start at "but if i ever find"

G|-----------------------------------------------------------------------------------------------|
D|-----------------------------------------------------------------------------------------------|
A|-------------------------------------/7--7--7-7-7-5--5--5-5-5----------------------------------|
E|-7--7--7-7-7-5--5--5-5-5-3--3--3-3-3--------------------------7--7--7-7-7-5--5--5-5-5-55555555-|

G|-------------------------------------------7-9--------11----------11--------11---|
D|-----------------------------9-------7-9-9-----/11-11----11/12-12----12----------|
A|-7--7--7-10-7-7-9-10--10--10---10-10------------------------------------9-9----9-|  
E|---------------------------------------------------------------------------------|

G|-------------------------------------------7-9--------11----------11--------11---|
D|-----------------------------9-------7-9-9-----/11-11----11-12-12----12----------|
A|-7--7--7-10-7-7-9-10--10--10---10-10------------------------------------9-9----9-|
E|---------------------------------------------------------------------------------|

G|-----------------------------------------------------------------------------------------|
D|-----------------------------------------------------------------------------------------|  
A|-7--7--7-7-7-7-7-/12--12--12-12-12-12-12-10-10-10-10-10-10-10-10-10-10-10-10-10-10-10-10-|      
E|-----------------------------------------------------------------------------------------|

Pause

Start after "I'll be home for next year"

G|---------------------------------|
D|---------4---------------5-------|
A|-5-5-5-5---5-5-7-----------------|    x2
E|-----------------3-3-3-3---3-3-5-|

G|-------------------------------------------------------------------------------------------------------|
D|-------------------------------------------------------------------------------------------------------|
A|-------------------------------------/7--7--7-7-7-5--5--5-5-5-2--2--2-2-2-------------/9--9--9-10-9-10-|
E|-7--7--7-7-7-5--5--5-5-5-3--3--3-3-3--------------------------------------2--2--2-2-2------------------|

G|-----------------------------------------------------------------------------------------------|
D|-----------------------------------------------------------------------------------------------|
A|-------------------------------------/7--7--7-7-7-5--5--5-5-5----------------------------------|
E|-7--7--7-7-7-5--5--5-5-5-3--3--3-3-3--------------------------7--7--7-7-7-5--5--5-5-5-55555555-|

G|-------------------------------------------7-9--------11----------11--------11---|
D|-----------------------------9-------7-9-9-----/11-11----11-12-12----12----------|
A|-7--7--7-10-7-7-9-10--10--10---10-10------------------------------------9-9----9-|
E|---------------------------------------------------------------------------------|

G|-----------------------------------------------------------------------------------------|
D|-----------------------------------------------------------------------------------------|  
A|-7--7--7-7-7-7-7-/12--12--12-12-12-12-12-10-10-10-10-10-10-10-10-10-10-10-10-10-10-10-10-|      
E|-----------------------------------------------------------------------------------------|

G|-----------------------------------------------------------------|           --|
D|---------4-5-4---------------------------------------------------|             |
A|-5-5-5-5-------5-----------------2-2-2-2-2-2-2-2-----------------|             |
E|-----------------3-3-3-3-3-3-3-3-----------------2-2-2-2-2-2-2-2-|             |
                                                                                 |-- x2
G|-------------------------------------------------------------------------|     |
D|-------------------------------------------------------------------------|     |
A|-----------------7-7-7-7-7-7-7-7-----------------10-10-10-10-10----12-10-|     | 
E|-3-3-3-3-3-3-3-3-----------------3-3-3-3-3-3-3-3----------------10-------|   --|

start after "as if you knew me sayin"

G|-------------------------------------------------------------------------------------------------|
D|-17-17-17-17-17-17-17-17-14-14-14-14-14-14-14-14-17-17-17-17-17-17-17-17-17-17-17-17-17-17-17-17-|
A|-------------------------------------------------------------------------------------------------|
E|-------------------------------------------------------------------------------------------------|

G|----------------------------------------------------------------|
D|----------------------------------------------------------------|
A|-14--14--14--14--13--13--13--13--17--17--17--17--19--19--19--19-|
E|----------------------------------------------------------------|

G|-------------------------------------------------------------------------|
D|-------------------------------------------------------------------------|
A|-10-10-10-10-10-10-10-10-10-10-10-10-10-10-10-10-10-10-10-10-10-10-10-10-|
E|-------------------------------------------------------------------------|

G|-----------------------------------------------------------------|
D|---------4-5-4---------------------------------------------------|
A|-5-5-5-5-------5-----------------2-2-2-2-2-2-2-2-----------------|
E|-----------------3-3-3-3-3-3-3-3-----------------2-2-2-2-2-2-2-2-|

G|--------------------------------------------------------------------------------|
D|--------------------------------------------------------------------------------|
A|-----------------7-7-7-7-7-7-7-7-----------------10-10-10-10-10---12-10-5(hold)-|
E|-3-3-3-3-3-3-3-3-----------------3-3-3-3-3-3-3-3----------------10--------------|


| /  slide up
| \  slide down
| h  hammer-on
| p  pull-off
| ~  vibrato
| +  harmonic
| x  Mute note
===============================================================================
Suggest correction
Creating personal tab
Creating personal tab
You can edit any tab online and save it as your Personal.

You can edit, replace or remove any tab part or add personal notes – all changes will be seen only by you.

Personal tabs can be accessed anytime from any device, even offline.
Learn more »
Give kudos to tab author, rate the tab!
1 2 3 4 5
comments
print report bad tab
2 comments total.
0 reply
isaachughesy 10 Apr 12, 2016 12:13 PM

Pure dog shit no time signatures why the fuck would you not add time signatures. Jordan Henderson as your captain fuck off.

0 reply
isaachughesy 10 Apr 12, 2016 12:13 PM

Pure dog shit no time signatures why the fuck would you not add time signatures. Jordan Henderson as your captain fuck off.

guest
You may want to rate the tab now too:
select rating
Wanna post a correction for this tab? Suggest correction