Oops, an error
Loading. Please wait.

Sleep Alone Bass Tab

6,575 views 15 this week
1 commentread comment
1 2 3 4 5
accurate
x 4
add to favorites
launch autoscroll
font size
0
reset
guitar tuner
Autoscroll
slow
fast
+/-
esc
set tempo
stop
Help us to improve Ultimate-Guitar.com Take our survey!
×
Author
Difficulty
novice
Intro/Verse 2x
G|----------------|
D|----------------|
A|3---5-----------|
E|--------5---1---|

Pre-Chorus 1x
G|------------------------10-10---7--7--7--7--------------|
D|----5--5---5--5----7--7-----------7-----7---5--5--5-----|
A|------5------5-------7-8--8--85--5--5--5----------------|
E|--3--3---3--3----5--5---------------------3--33-33-33333|

Chorus 4x
G|-------5-----------7-----14-12---------|
D|---7--7------3-5-----0-0----------5----|
A|-----7-----------5------------------5-7|
E|-5--5----1-1-------------------3-3-3---|

Verse 2x

Pre-Chorus 1x

Chorus 4x

Bridge 2x
G|---------------------------------10-10-12-----------10-10-12---------|
D|------------------------------------------10-----------------10------|
A|----------------7-7-7757-7-775758--8---------12-10-8--8---------12-10|
E|5-5-5535-5-55353-------------------------8--8---------------8--8-----|

Chorus 4x

Outro 2x
G|-----------------------------57--------------------------------|
D|-------------------------------------------7-5-----------------|
A|3-3-3-3-3-3-3-3-5-5-5-5-5-5-5----------------------------------|
E|-------------------------------5-5-5-5-5-5-----1-1-1-1-1-1-1333|

End
G|----|
D|----|
A|3---|
E|----|
Suggest correction new What's this?
You can suggest a correction to this tab. Community and Mods will review your correction and vote to approve or reject it.
comments
print report bad tab
1 comment total.
0 reply
taylorlongboard 60 wrote on December 17 2012, 05:40 pm

just use open notes. ****

guest
You may want to rate the tab now too:
select rating
Please do not post tabs as comments. Select "correction" instead!