Oops, an error
Loading. Please wait.

Something Good Can Work Bass Tab

version 1
version 1

Whole song

Interactive

16,997 views 1 this week
2 commentsread comments
1 2 3 4 5
accurate
x 3
add to favorites
launch autoscroll
font size
0
reset
guitar tuner
Autoscroll
slow
fast
+/-
esc
set tempo
stop
Help us to improve Ultimate-Guitar.com Take our survey!
×
Author
Difficulty
-------------------------------------------------------------------------------
SOMETHING GOOD CAN WORK - Two Door Cinema Club
-------------------------------------------------------------------------------

Tabbed By : The Fuuuuuuzzzz
e-mail: thefuuuuuuzzzz@hotmail.com

Tuning: Standard

Intro/ Chorus
G|---------------------------------------------------------------------------|
D|-----------------------------------5-5-5---5/7-5---------------------------|
A|-8-8-8---8/10-8------------------------------------5-5-5---5/7-------------| (x2)
E|------------------8-8-8---8/10-8-------------------------------------------|

Verse
G|---------------------------------------------------------------------------|
D|-3-3-3-3-------------------------------------------------------------------|
A|---------3-3-3-3-5-5-5-5---------------------------------------------------| (x2)
E|-------------------------6-6-6-6-------------------------------------------|

Solo
G|---------------------------------------------------------------------------|
D|-3-3-3-3-3-3-3-3-----------------5-5-5-5-5-5-5-5---------------------------|
A|-----------------3-3-3-3-3-3-3-3-----------------5-5-5-5-5-5-7-7-----------| (x2)
E|---------------------------------------------------------------------------|

Order:
Intro
Verse
Chorus
Verse
Chorus
Solo
Chorus x2

This was my first attempt at doing a tab, so I apologise in advance for any
mistakes. If you feel there are any ways I can improve, if you are blown away
by the sheer brilliance of my work, or if you just fancy saying 'hi', please
give some feedback using the email at the top.
Cheers.

| /  slide up
| \  slide down
| h  hammer-on
| p  pull-off
| ~  vibrato
| +  harmonic
| x  Mute note
===============================================================================


Suggest correction
Give kudos to tab author, rate the tab!
1 2 3 4 5
comments
print report bad tab
2 comments total.
0 reply
AlexD97 579 wrote on June 8 2010, 11:03 am

It was good, but there were some stuff missing.

0 reply
AlexD97 579 wrote on June 14 2010, 01:39 pm

Oh, and by the way, the first 3's in the verse, is supposed to be low, not high, in other words E|1-1-1-1 NOT D|3-3-3-3

Same thing in the solo.

guest
You may want to rate the tab now too:
select rating
Wanna post a correction for this tab? Suggest correction