Oops, an error
Loading. Please wait.

Something Good Can Work Tab

version 1
version 1

Whole song

Interactive

159,702 views 129 this week
11 commentsread comments
1 2 3 4 5
accurate
x 31
add to favorites
launch autoscroll
font size
0
reset
how to read this tab
guitar tuner
Autoscroll
slow
fast
+/-
esc
set tempo
stop
Help us to improve Ultimate-Guitar.com Take our survey!
×
Author
Difficulty
Capo
novice
5th fret
One of my fave songs by one of my fave bands
Here's a link to their Myspace Page
http://www.myspace.com/twodoorcinemaclub


Guitar 1 - Alex

Capo on 5

Intro - Relative to Capo
e|-------------------------------------------------------------|
B|5-5-55588885-3-3-33335555333-3-3-33333333333-1-1-11111111000-|
G|5-5-55555555-4-4-44444444444-2-2-22222222222-2-2-22222222222-|
D|5-5-55555555-5-5-55555555555-3-3-33333333333-2-2-22222222222-|
A|-------------------------------------------------------------|
E|-------------------------------------------------------------|

Verse - Come in on second time through
e|-------------------------------|
B|5-5-----8-8------8-10-----8-10-|
G|5-5-----5-5------9-9------9-9--|
D|5-5-----5-5------1010-----1010-|
A|-------------------------------|
E|-------------------------------|

Chorus is the same as the Intro

Verse again

Break - Wait a while and then play this
e|------------------------------|
B|-------8----------------------|
G|4/5-7/9--9\7--4/5\4-2/4\2-4\0-|
D|------------------------------|
A|------------------------------|
E|------------------------------|

Chorus

Finish on
e|---|
B|5~-|
G|5~-|
D|5~-|
A|---|
E|---|

Guitar 2 - Sam

No Capo

Intro - Wait until Alex's riff is played once through
e|17-15----------17-15-------20~-|
B|------18-17----------18-17-----|
G|------------17~----------------|
D|-------------------------------|
A|-------------------------------|
E|-------------------------------|

Main Riff/Chorus
e|17-15--------------------------------17-15-----------------------------|
B|------17-17h18p17h18p17-15-----------------17-17h18p17h18p17-----------|
G|---------------------------17~-17/19-------------------------17--------|
D|----------------------------------------------------------------17-15~-|
A|-----------------------------------------------------------------------|
E|-----------------------------------------------------------------------|

Verse
e|-----------------------------------------------|
B|1010-/1717--1010-/1717--1010-/1717--1010-/1717-|
G|-----------------------------------------------|
D|-----------------------------------------------|
A|8-8-/1515---8-8--/1515--8-8--/1515--8-8--/1515-|
E|-----------------------------------------------|

add a few mute notes and stuff in here, just to fill it out a bit more
e|---------------------------------------------------|
B|1010-/1717--1010-/1717--1010-/1717-15-151515-------|
G|1010-/1717--1010-/1717--1010-/1717-x--x-x-x--12/14-|
D|-----------------------------------12-121212-x--x--|
A|8-8--/1515--8-8--/1515--8-8--/1515-----------10/12-|
E|---------------------------------------------------|

Chorus

Verse

Chorus

During the Break there is only one guitar, as Sam plays tambourine in this bit when they play live

Chorus to end

This should be 100% correct, enjoy :)
Suggest correction
What's this?
You can suggest a correction to this tab. Community and Mods will review your correction and vote to approve or reject it.
comments
print report bad tab
11 comments total. Showing first comments.
0 reply
the_crimison 1,713 wrote on January 27 2010, 10:17 pm

I love this song and well done tabbing it!

0 reply
patch17 3,094 wrote on January 28 2010, 01:25 pm

cheers....i love it too!!! :)

0 reply
CrazyYaz 1,613 wrote on March 14 2010, 04:03 pm

good tab, this band is really good.

guest
You may want to rate the tab now too:
select rating
Please do not post tabs as comments. Select "correction" instead!