Oops, an error
Loading. Please wait.

Something Good Can Work Bass Tab

version 3
version 3

Whole song

Interactive

2,230 views 1 this week
no commentswrite comment
1 2 3 4 5
please rate
add to favorites
launch autoscroll
font size
0
reset
guitar tuner
Autoscroll
slow
fast
+/-
esc
set tempo
stop
Help us to improve Ultimate-Guitar.com Take our survey!
×
Author
Difficulty
Artist: Two Door Cinema Club

Album: Tourist History

Song: Something Good Can Work


Intro

G||-------------10.10--12.12-10.10-|--------------------------------|
D||--------------------------------|-------------10.10--12.12-10.10-|
A||-8--8---8--8--------------------|--------------------------------|
E||--------------------------------|-8--8---8--8--------------------|

G||---------------12.12-14.14-12.12-|-------------------------------||
D||---------------------------------|---------------12.12-14--------||  x2
A||-10--10--10-10-------------------|-------------------------------||
E||---------------------------------|-10--10--10-10-----------------||


Verse

G||--------------------|--------------------|
D||--------------------|--------------------|
A||--------------------|--------------------|
E||-1----1----1----1---|-5----5----5----5---|

G||--------------------|--------------------||
D||--------------------|--------------------||  x2
A||--------------------|--------------------||
E||-10---10---10---10--|-6----6----6----6---||


Chorus

G||-------------10.10--12.12-10.10-|--------------------------------|
D||--------------------------------|-------------10.10--12.12-10.10-|
A||-8--8---8--8--------------------|--------------------------------|
E||--------------------------------|-8--8---8--8--------------------|

G||---------------12.12-14.14-12.12-|-------------------------------||
D||---------------------------------|---------------12.12-14--------||  x2
A||-10--10--10-10-------------------|-------------------------------||
E||---------------------------------|-10--10--10-10-----------------||


Verse 2

G||--------------------|--------------------|
D||--------------------|--------------------|
A||--------------------|--------------------|
E||-1----1----1----1---|-5----5----5----5---|

G||--------------------|--------------------||
D||--------------------|--------------------||  x2
A||--------------------|--------------------||
E||-10---10---10---10--|-6----6----6----6---||


Chorus 2

G||-------------10.10--12.12-10.10-|--------------------------------|
D||--------------------------------|-------------10.10--12.12-10.10-|
A||-8--8---8--8--------------------|--------------------------------|
E||--------------------------------|-8--8---8--8--------------------|

G||---------------12.12-14.14-12.12-|-------------------------------||
D||---------------------------------|---------------12.12-14--------||  x2
A||-10--10--10-10-------------------|-------------------------------||
E||---------------------------------|-10--10--10-10-----------------||


Outro

G||--------------------|--------------------|
D||--------------------|--------------------|
A||-8-8--8-8--8-8--8-8-|--------------------|
E||--------------------|-8-8--8-8--8-8--8-8-|

G||----------------------------|----------------------------------|
D||----------------------------|----------------------------------|
A||-10-10--10-10--10-10--12-10-|----------------------------------|
E||----------------------------|-10-10--10-10--10-10--12.12.12.12-|


G||--------------------|--------------------|
D||--------------------|--------------------|
A||-8-8--8-8--8-8--8-8-|--------------------|
E||--------------------|-8-8--8-8--8-8--8-8-|

G||----------------------------|----------------------------|
D||----------------------------|----------------------------|
A||-10-10--10-10--10-10--12-10-|----------------------------|
E||----------------------------|-10-10--10-10--10-----------|


Chorus 3

G||-------------10.10--12.12-10.10-|--------------------------------|
D||--------------------------------|-------------10.10--12.12-10.10-|
A||-8--8---8--8--------------------|--------------------------------|
E||--------------------------------|-8--8---8--8--------------------|

G||---------------12.12-14.14-12.12-|-------------------------------||
D||---------------------------------|---------------12.12-14--------||  x4
A||-10--10--10-10-------------------|-------------------------------||
E||---------------------------------|-10--10--10-10-----------------||

G||--------------------||
D||--------------------||
A||--------------------||
E||-13-----------------||


tab by: Pedro Zappa
Suggest correction
Give kudos to tab author, rate the tab!
1 2 3 4 5
comments
print report bad tab
guest
You may want to rate the tab now too:
select rating
Please do not post tabs as comments. Select "correction" instead!