Oops, an error
Loading. Please wait.

Sun Bass Tab

version 1
version 1

Whole song

12,611 views 18 this week
no commentswrite comment
1 2 3 4 5
accurate
x 7
add to favorites
launch autoscroll
font size
0
reset
guitar tuner
Autoscroll
slow
fast
+/-
esc
set tempo
stop
Help us to improve Ultimate-Guitar.com Take our survey!
×
Difficulty
intermediate
Song:Sun
Band:Two door cinema club
Album:Beacon

Tabber: Jennifer Morgan
Date: 7th september 2012

verse

G|-------------2---------------------9-7---|
D|0--2--4------------------0-1-2---------9-|
A|----------0----0---2--3------------------|    Repeat x4
E|-----------------------------------------|
  Drawn apart    New York    and London

chorus

G|---5--5--5---7---9--2--2--2-4-----------4------4----------4-----|
D|----------------------------------------------------------------|
A|-3--3--3----------0--0--0--------5----2-------2---------2-------|
E|----------------------------------------------------------------|
   Though  I'm far away     I know I'll stay, I know I'll stay

G|-------------------------------|
D|-------------------5--5--5-0-0-|
A|------2-----0------------------|    Repeat x2
E|-----------------3--3--3-------|
  Right there with you

Verse

x2

Chorus

x2

Bridge

G|---------------------------------------------------|
D|----------------2-2-2-2-2-2-2-2---0-0-0-0-0-0-0-0--|
A|3-3-3-3-3-3-3-3------------------------------------|
E|---------------------------------------------------|
  Over and over   many setting suns I have run,I have

G|------------------------------|
D|------------------------------|   x2
A|0--0---0---0---0----0--0-0----|
E|------------------------------|
  waited for the rain to come

Chorus

repeat x4
comments
print report bad tab
I want to post or [tab]
guest
You may want to rate the tab now too:
select rating
Please do not post tabs as comments. Select "correction" instead!