Oops, an error
Loading. Please wait.

Sun Bass Tab

version 1
version 1

Whole song

12,920 views 18 this week
no commentswrite comment
1 2 3 4 5
x 8
add to favorites
launch autoscroll
font size
0
reset
guitar tuner
Autoscroll
slow
fast
+/-
esc
set tempo
stop
Help us to improve Ultimate-Guitar.com Take our survey!
×
Difficulty
intermediate
Song:Sun
Band:Two door cinema club
Album:Beacon

Tabber: Jennifer Morgan
Date: 7th September 2012

(No bass for intro)

Verse

(Repeats twice before verse starts)
G|---------------2--|-------------------9--7----|
D|-0--2--4----------|-----------0--2----------9-|
A|----------0-------|-00--3--3------------------|  x5
E|------------------|---------------------------|
  Drawn apart    New York    and London

(Last line of verse)
G|---------------2--|------------------------|
D|-0--2--4----------|-57-0-0-0-0-0-0-0-0-0---|
A|----------0-------|------------------------| 
E|------------------|------------------------|
  And I wonder       will you wait for me


Chorus

G|---5--5--5---7-9-|---2--2--2---4---|-----------------|-----------------|
D|-----------------|---------------5-|---9--9--9-------|---5--5--5--0-0--|
A|-3--3--3---------|-0--0--0---------|-7--7--7-----7-5-|-----------------|  x2
E|-----------------|-----------------|-----------------|-3--3--3---------|
   Though  I'm far away     I know I'll stay, I know I'll stay    right there with you


Verse 

(Repeats twice before verse starts)
G|---------------2--|-------------------9--7----|
D|-0--2--4----------|-----------0--2----------9-|
A|----------0-------|-00--3--3------------------|  x5
E|------------------|---------------------------|
  I built a hive     Became one with the bees

(Last line of verse)
G|---------------2--|-------------------------|
D|-0--2--4----------|-57--0-0-0-0-0-0-0-0-0---|
A|----------0-------|-------------------------| 
E|------------------|-------------------------|
  So just hold tight


Chorus 
G|---5--5--5---7-9-|---2--2--2---4---|-----------------|-----------------|
D|-----------------|---------------5-|---9--9--9-------|---5--5--5--0-0--|
A|-3--3--3---------|-0--0--0---------|-7--7--7-----7-5-|-----------------|  x2
E|-----------------|-----------------|-----------------|-3--3--3---------|
   Though  I'm far away     I know I'll stay, I know I'll stay    right there with you


Bridge

G|-----------------|-----------------|-----------------|--------------------|
D|-----------------|-2-2-2-2-2-2-2-2-|-0-0-0-0-0-0-0-0-|--------------------| x2
A|-3-3-3-3-3-3-3-3-|-----------------|-----------------|-0-0-0-0-0-0-0-0----|
E|-----------------|-----------------|-----------------|--------------------|
   Over and over many setting suns.   I have run,I have  waited for the rain to come


Chorus
  (Comes in straight after the Bridge)
G|---5--5--5---7-9-|---2--2--2---4---|-----------------|-----------------|
D|-----------------|---------------5-|---9--9--9-------|---5--5--5--0-0--|
A|-3--3--3---------|-0--0--0---------|-7--7--7-----7-5-|-----------------|  x4 
E|-----------------|-----------------|-----------------|-3--3--3---------|
   Though  I'm far away     I know I'll stay, I know I'll stay    right there with you
Suggest correction
comments
print report bad tab
guest
You may want to rate the tab now too:
select rating
Wanna post a correction for this tab? Suggest correction