Oops, an error
Loading. Please wait.
40,982 views 78 this week
1 commentread comment
1 2 3 4 5
x 14
add to favorites
launch autoscroll
font size
0
reset
how to read this tab
guitar tuner
×
Best way to learn
"Sun"
Autoscroll
slow
fast
+/-
esc
set tempo
stop
Author
Difficulty
  follow
intermediate
Two Door Cinema Club's song "Sun" off their new album Beacon
http://www.youtube.com/watch?v=IaueyPmeslk


[Intro and after 1st chorus]

e|--------------------------------------------------/12-12\----|
B|------12-8-10~-------------------12-8-10~--------------------|
G|--9-9----------9-9~-9-12-9~--9-9----------9-9~-9-------------|
D|-------------------------------------------------------------|
A|-------------------------------------------------------------|
E|-------------------------------------------------------------|

e|-------------------------------------------------------------|
B|------12-8-10~---------10-10-10-10-10h12-12------------------|
G|--9-9----------9-9~--9\----------------------7h9-9-9~~~------|
D|-------------------------------------------------------------|
A|-------------------------------------------------------------|
E|-------------------------------------------------------------|

 Did my best on the little blurbs of guitar during the verse
e|--------][----------][-------12--12-12\-][------------]-------12-12\-------|
B|--------][----------][------------------][------------]--------------------|
G|--7h9-9-][--9--9-9--][-7h9p7------------][-12\-16~~~\-]--9-9\----------9~~-|
D|--------][----------][------------------][------------]--------------------|
A|--------][----------][------------------][------------]--------------------|
E|--------][----------][------------------][------------]--------------------|


[Chords during chorus]

e|---8--------5--------12-------7-------|
B|---8--------5--------12-------8-------|
G|---9--------5--------12-------7-------|
D|---10-------7--------14-------9-------|
A|--------------------------------------|
E|--------------------------------------|
...Then back to intro riff

 More little blurbs
e|---------][-------12--12-12\-][----------][---------------][--------|
B|---------][------------------][----------][---------------][--10~~~-|
G|-9p7h9p7-][-7h9p7------------][-9-9-12-9-][-x-9-x-9-9-7-9-][--------|
D|---------][------------------][----------][---------------][--------|
A|---------][------------------][----------][---------------][--------|
E|---------][------------------][----------][---------------][--------|


[Right before chorus]

e|----------------|
B|--12p10h12p10p8-|
G|----------------|
D|----------------|
A|----------------|
E|----------------|


[Chorus]

e|-------------------------------------------|
B|-------------------------------------------|
G|--9-9/--16-16-16-16\--9/-12-12-12\---------|
D|-------------------------------------------|
A|-------------------------------------------|
E|-------------------------------------------|x3

e|-----------------------------------|
B|------10-10-10-10-10-8-------------|
G|--7-7------------------7h9-9-------|
D|-----------------------------------|
A|-----------------------------------|
E|-----------------------------------|x1


[Bridge]

 (I use a Digitech whammy to harmonize one octave above)
 So here are the bottom notes...
e|--------------------    e--------------------|
B|--------------------    B--------------------|
G|--------------------    G-------------9-7----|
D|--------9-----------    D---------9----------|
A|-7-10-7---7-10-7----    A--7-10-7---7--------|
E|--------------------x3  E--------------------|

 ...And here are the top notes
e|--------------------    e-------------12-10--|
B|--------12----------    B--------12----------|
G|-9-12-9----9-12-9---    G-9-12-9----9--------|
D|--------------------    D--------------------|
A|--------------------    A--------------------|
E|--------------------x3  E--------------------|


[Bridge ends on these notes respectively]

e|-------    e-------|
B|-------    B-------|
G|-------    G--9~~--|
D|-------    D-------|
A|--7~~--    A-------|
E|-------    E-------|

Then back to the chorus riff which repeats until you end with the bridge riff played 
just once.

You can watch my whole cover of the song on guitar and bass using the link at the top of 
the tab. Enjoy!



************************************

| x  Dead note
| h  Hammer-on
| p  Pull-off
| /  Slide up
| \  Slide down
| ~  Vibrato

************************************
Suggest correction
comments
print report bad tab
1 comment total.
0 reply
cha33 armstrong 195 Nov 29, 2012 04:11 AM

great tab same notes but from the vid hes playing it around the 5th fret on the 5th/b string

guest
You may want to rate the tab now too:
select rating
Wanna post a correction for this tab? Suggest correction