Oops, an error
Loading. Please wait.

Sun Bass Tab

version 2
version 2

Whole song

3,392 views 6 this week
no commentswrite comment
1 2 3 4 5
accurate
x 6
add to favorites
launch autoscroll
font size
0
reset
guitar tuner
Tab Pro tools
  • play this tab
  • loop segment
  • change instrument
  • show fretboard
  • metronome
×
Best way to learn
"Sun"
Autoscroll
slow
fast
+/-
esc
set tempo
stop
Contributor
Two Door Cinema Club's song "Sun" off their new album Beacon
http://www.youtube.com/watch?v=IaueyPmeslk

Intro/Verse
G-------------------------------------------------|
D-----4-5------7-------------------12/14-12-------|
A---5-----------------------5-7-7-----------14----|
E---------x-5-------5-7-8-8-----------------------|

Last time before the chorus
G-------------------------------------------------|
D-----4-5------7---5h7----------------------------|
A---5------------------5-5-5-5-5-5-5-5------------|
E---------x-5-------------------------------------|

Chorus
G-----------------------9-------------------------|
D-----10---10---10--12------7---7---7--7/9--------|
A------------------------------------------10-----|
E---8----8----8-----------5---5---5---------------|

G-----9---9---9-----------------------------------|
D----------------------5---5---5------------------|
A---7---7---7---5-5--------------5-5--------------|
E--------------------3---3---3--------------------|

Bridge
G--------------------------------------------------------------------|
D--------------------------------------------------------------------|
A--3-3-3-3-3-3-3-3-7-7-7-7-7-7-7-7-5-5-5-5-5-5-5-5-------------------|
E--------------------------------------------------5-5-5-5-5-5-5-5---|

G--------------------------------------------------------------------|
D--------------------------------------------------------------------|
A--3-3-3-3-3-3-3-3-7-7-7-7-7-7-7-7-5-5-5-5-5-5-5-5-------------------|
E--------------------------------------------------5~~---------------|

End last chorus on
G--------|
D--------|
A--3~~---|
E--------|
comments
print report bad tab
I want to post or [tab]
guest
You may want to rate the tab now too:
select rating
Please do not post tabs as comments. Select "correction" instead!