Oops, an error
Loading. Please wait.

Sun Bass

version 3
version 3

Whole song

17,301 views 51 this week
5 commentsread comments
1 2 3 4 5
x 24
add to favorites
launch autoscroll
font size
0
reset
guitar tuner
×
Best way to learn
"Sun"
Autoscroll
slow
fast
+/-
esc
set tempo
stop
Author
Intro:

G|---------------------------------------/9--7---|
D|----5--7--------7----------------------------9-|
A|-5----------------------------5--7-7--7--------|
E|----------5-5-------5-7-8--8-------------------|


Verse:

G|---------------------------------------/9--7---|
D|----5--7--------7----------------------------9-|
A|-5----------------------------5--7-7--7--------|
E|----------5-5-------5-7-8--8-------------------|

             ----------------------------------|
Into chorus: ------5h7-------------------------|
             -----------5--5--5--5--5--5--5--5-|
             ----------------------------------|

Chorus:

G|----------------------7--9-------------------------|
D|----10-----10-----10-----------7-----7-----7--9--5-|
A|---------------------------------------------------|
E|-8------8------8------------5-----5-----5----------|

------------------------------------------------|
----9-----9-----9-----------5-----5-----5-------|
-7-----7-----7-----5--5--------------------5--5-|
-------------------------3-----3-----3----------|

Bridge:

G|------------------------------------------------|
D|------------------------------------------------|
A|-------------------------7--7--7--7--7--7--7--7-|
E|-8--8--8--8--8--8--8--8-------------------------|

------------------------------------------------|
------------------------------------------------|
-5--5--5--5--5--5--5--5-------------------------|
-------------------------5--5--5--5--5--5--5--5-| x2

Intro x2
Verse x3.5
Into chorus x1
Chorus x2
Intro x2
Verse (x3.5) then Into chorus x1 then Chorus x2 then Bridge then Chorus x4
Suggest correction
comments
print report bad tab
5 comments total. Showing first comments.
+1 reply
wbalston 194 May 25, 2013 03:12 PM

so fun. well don

0 reply
MitchellMA 188 Dec 02, 2014 05:31 PM

the last note is a C, E|--8-

+3 reply
dakota_s_ 277 Dec 23, 2014 07:54 AM

There are a few mistakes in the intro/verse
This:
G|---------------------------------------/9--7---|
D|----5--7--------7----------------------------9-|
A|-5----------------------------5--7-7--7--------|
E|----------5-5-------5-7-8--8-------------------|

Should be this:
G|-----------------------------/9-7---|
D|---4-5-----7----------------------9-|
A|-5---------------------5-7----------|
E|-------5-------5---8-8--------------|

guest
You may want to rate the tab now too:
select rating
Wanna post a correction for this tab? Suggest correction