Oops, an error
Loading. Please wait.

This Is The Life Bass Tab

version 3
version 3

Whole song

967 views 1 this week
no commentswrite comment
1 2 3 4 5
please rate
add to favorites
launch autoscroll
font size
0
reset
guitar tuner
Tab Pro tools
  • play this tab
  • loop segment
  • change instrument
  • show fretboard
  • metronome
×
Best way to learn
"This Is The Life"
Autoscroll
slow
fast
+/-
esc
set tempo
stop
Contributor
Difficulty
novice
Artist: Two Door Cinema Club

Album: Tourist History

Song: This Is The Life


Intro

G||--------------------|--------------------|--------------------|
D||-7-7--7-7--7-7--7-7-|-7-7--9-9--7-7--7-7-|-7-7--7-7--7-7--7-7-|
A||--------------------|--------------------|--------------------|
E||--------------------|--------------------|--------------------|

G||--------------------||--------------------|--------------------||
D||-7-7--9-9--7-7--7---||--------------------|----------------9---|| x2
A||------------------7-||---7--7-7--7----7-7-|-7----7-7--9-9----7-||
E||--------------------||--------------------|--------------------||


G||--------------------|--------------------|--------------------|
D||-7-7--7-7--7-7--7-7-|-7-7--9-9--7-7--7-7-|-7-7--7-7--7-7--7-7-|
A||--------------------|--------------------|--------------------|
E||--------------------|--------------------|--------------------|

G||--------------------||--------------------|--------------------||
D||-7-7--9-9--7-7--7---||--------------------|----------------9---|| x2
A||------------------7-||---7--7-7--7----7-7-|-7----7-7--9-9----7-||
E||--------------------||--------------------|--------------------||


Verse

G||---------------------|--------------------|
D||---------------------|--------------------|
A||-4-x4---x2--4----4-2-|-4----4-2-----------|
E||---------------------|-----------2-2--2-0-|

G||---------------------|--------------------||
D||---------------------|-----------9-9--9-9-||  x2
A||-------7---------7---|------7-------------||
E||---00----0--0-0----0-|-0-0----0-----------||


Pre-Chorus

G||--------------------|--------------------|
D||-7-7--7-7--7-7--7-7-|-7-7--7-7--7-7--7-7-|
A||--------------------|--------------------|
E||--------------------|--------------------|

G||--------------------|--------------------|
D||--------------------|--------------------|
A||-2-2--2-2--2-2--2-2-|-2-2--2-2--2-2--2---|
E||--------------------|------------------0-|


G||--------------------|--------------------|
D||--------------------|-------------9----9-|
A||------7-7--7----7-7-|-7----7-7--7----7---|
E||---0----------------|--------------------|

G||--------------------|--------------------|
D||--------------------|-------------9----9-|
A||-7-7--7-7--7----7-7-|-7----7-7--7----7---|
E||--------------------|--------------------|


Chorus

G||--------------------|--------------------|
D||-7-7--7-7--7-7--7-7-|-7-7--9-9--7-7--7---|
A||--------------------|------------------7-|
E||--------------------|--------------------|

G||--------------------|--------------------|
D||--------------------|------6-6--7-6--6---|
A||-9-9--9-9--9-9--9-9-|-9-9--------------7-|
E||--------------------|--------------------|

---

G||--------------------|--------------------|
D||--------------------|----------------9---|
A||---7--7-7--7----7-7-|-7----7-7--9-9----7-|
E||--------------------|--------------------|

G||--------------------|--------------------|
D||--------------------|----------------9---|
A||-7-7--7-7--7----7-7-|-7----7-7--9-9----7-|
E||--------------------|--------------------|


G||--------------------|--------------------|
D||-7-7--7-7--7-7--7-7-|-7-7--9-9--7-7--7---|
A||--------------------|------------------7-|
E||--------------------|--------------------|

G||--------------------|--------------------|
D||--------------------|------6-6--7-6--6---|
A||-9-9--9-9--9-9--9-9-|-9-9--------------7-|
E||--------------------|--------------------|

---

G||--------------------|--------------------|
D||--------------------|----------------9---|
A||---7--7-7--7----7-7-|-7----7-7--9-9----7-|
E||--------------------|--------------------|

G||--------------------|--------------------|
D||--------------------|----------------9---|
A||-7-7--7-7--7----7-7-|-7----7-7--9-9----7-|
E||--------------------|--------------------|


Verse 2

G||---------------------|--------------------|
D||---------------------|--------------------|
A||-4-x4---x2--4----4-2-|-4----4-2-----------|
E||---------------------|-----------2-2--2-0-|

G||---------------------|--------------------||
D||---------------------|-----------9-9--9-9-||  x2
A||-------7---------7---|------7-------------||
E||---00----0--0-0----0-|-0-0----0-----------||


Pre-Chorus

G||--------------------|--------------------|
D||-7-7--7-7--7-7--7-7-|-7-7--7-7--7-7--7-7-|
A||--------------------|--------------------|
E||--------------------|--------------------|

G||--------------------|--------------------|
D||--------------------|--------------------|
A||-2-2--2-2--2-2--2-2-|-2-2--2-2--2-2--2---|
E||--------------------|------------------0-|


G||--------------------|--------------------|
D||--------------------|-------------9----9-|
A||------7-7--7----7-7-|-7----7-7--7----7---|
E||---0----------------|--------------------|

G||--------------------|--------------------||
D||--------------------|-------------9----9-||
A||-7-7--7-7--7----7-7-|-7----7-7--7----7---||
E||--------------------|--------------------||


Chorus 2

G||--------------------|--------------------|
D||-7-7--7-7--7-7--7-7-|-7-7--9-9--7-7--7---|
A||--------------------|------------------7-|
E||--------------------|--------------------|

G||--------------------|--------------------|
D||--------------------|------6-6--7-6--6---|
A||-9-9--9-9--9-9--9-9-|-9-9--------------7-|
E||--------------------|--------------------|

G||--------------------|--------------------|
D||--------------------|----------------9---|
A||---7--7-7--7----7-7-|-7----7-7--9-9----7-|
E||--------------------|--------------------|

G||--------------------|--------------------||
D||--------------------|----------------9---||  x3
A||-7-7--7-7--7----7-7-|-7----7-7--9-9----7-||
E||--------------------|--------------------||


Outro

G||--------------------|--------------------|
D||--------------------|--------------------|
A||-4----4----4----4---|-4----4----2-2--4-4-|
E||--------------------|--------------------|

G||--------------------|-----------------|
D||-4----4----4----4---|-4----4----11-11-|
A||--------------------|-----------------|
E||--------------------|-----------------|

G||--------------------|--------------------|
D||-7----7----7----7---|-7----7----7----7---|
A||--------------------|--------------------|
E||--------------------|--------------------|

G||--------------------|---------------|
D||-7----7----7----7---|-7----7----9---|
A||--------------------|---------------|
E||--------------------|---------------|


G||--------------------|--------------------|
D||--------------------|-------------2------|
A||-4--4--2---4--4--2--|-4--4--2---4----4-2-|
E||--------------------|--------------------|

G||--------------------|----------------|
D||-4--4--4---4--4--4--|-4--4--4---11---|
A||--------------------|----------------|
E||--------------------|----------------|

G||--------------------|---------------------|
D||-7--7--7---7--7--7--|-7--7--7---7-9--11-9-|
A||--------------------|---------------------|
E||--------------------|---------------------|

G||--------------------|---------------|
D||-7--7--7---7--7--7--|-7--7--7---9---|
A||--------------------|---------------|
E||--------------------|---------------|


G||--------------------|--------------------|
D||--------------------|-------------2------|
A||-4--4--2---4--4--2--|-4--4--2---4----4-2-|
E||--------------------|--------------------|

G||--------------------|--------------------||
D||--------------------|--------------------||
A||-4--4--2---4--4--2--|-4----4-------------||
E||--------------------|--------------------||


tab by: Pedro Zappa
comments
We did not receive enough feedback on this tab! Please rate:
print report bad tab
1 2 3 4 5
I want to post or [tab]
guest
You may want to rate the tab now too:
select rating
Please do not post tabs as comments. Select "correction" instead!