Oops, an error
Loading. Please wait.

Undercover Martyn Tab

version 2
version 2

Acoustic

Whole song

Interactive

11,494 views 1 this week
2 commentsread comments
1 2 3 4 5
excellent!
x 3
add to favorites
launch autoscroll
font size
0
reset
how to read this tab
guitar tuner
Autoscroll
slow
fast
+/-
esc
set tempo
stop
Help us to improve Ultimate-Guitar.com Take our survey!
×
Author
Difficulty
novice
Several people have contributed the chords already, so here are the tabs for the lead 
guitarist in the middle.

Acoustic version
http://www.youtube.com/watch?v=-x9B3QId1Ls

Standard tuning

e|-------------0h2p0-------|-------------0h2p0-------|
B|---2h3p2-----------2-3-2-|---2h3p2-----------2-0---|
G|-2-------2-2-------------|-2-------2-2-----------2-| *play twice
D|-------------------------|-------------------------|
A|-------------------------|-------------------------|
E|-------------------------|-------------------------|

        ~ *vibrato on 7
e|-----------------|
B|-6\9-7/5---------|
G|---------6-6-4-6-| *play 8 times
D|-----------------|
A|-----------------|
E|-----------------|


e|-------------0h2p0-------|-------------0h2p0-------|
B|---2h3p2-----------2-3-2-|---2h3p2-----------2-0---|
G|-2-------2-2-------------|-2-------2-2-----------2-| *play 4 times
D|-------------------------|-------------------------|
A|-------------------------|-------------------------|
E|-------------------------|-------------------------|

        ~ *vibrato on 7
e|-----------------|
B|-6\9-7/5---------|
G|---------6-6-4-6-| *play 8 times
D|-----------------|
A|-----------------|
E|-----------------|


e|-------------0h2p0-------|-------------0h2p0-------|
B|---2h3p2-----------2-3-2-|---2h3p2-----------2-0---|
G|-2-------2-2-------------|-2-------2-2-----------2-| *play 4 times
D|-------------------------|-------------------------|
A|-------------------------|-------------------------|
E|-------------------------|-------------------------|

You can pick up the strumming pattern by listening. I tend to only pluck
from D down to e.
e|-x---x---x--|
B|-9---12--14-|
G|-9---12--14-| * repetition of these chords until the end
D|-x---x---x--|
A|-x---x---x--|
E|-x---x---x--|

==========================================================================
h = hammer-on
p = pull-off
~ = vibrato
/ = slide up
\ = slide down
x = mute
==========================================================================
Suggest correction
What's this?
You can suggest a correction to this tab. Community and Mods will review your correction and vote to approve or reject it.
comments
We did not receive enough feedback on this tab! Please rate:
print report bad tab
1 2 3 4 5
2 comments total.
+2 reply
Nich95 125 wrote on December 5 2011, 12:48 am

just a correction for the intro riff
e--------------0h2p0-------|
B----2h3p2-----------2-5-2-| ----2h3p2-----5h7p5-2-5-2-|
G--2-------2-2-------------| or --2-------2-2-------------|

0 reply
fathurmajid 12 wrote on April 27 2013, 05:37 am

Maybe
e|-x---x---x--|
B|-9---12--14-|
G|-9---13--14-|
D|-x---x---x--|
A|-x---x---x--|
E|-x---x---x--|

guest
You may want to rate the tab now too:
select rating
Please do not post tabs as comments. Select "correction" instead!