Oops, an error
Loading. Please wait.

Undercover Martyn Tab

version 1
version 1

Whole song

Interactive

83,581 views 66 this week
2 commentsread comments
1 2 3 4 5
x 3
add to favorites
launch autoscroll
font size
0
reset
how to read this tab
guitar tuner
Autoscroll
slow
fast
+/-
esc
set tempo
stop
Help us to improve Ultimate-Guitar.com Take our survey!
×
Author
Difficulty
novice
Guitar 1 - Alex

Intro
e|---------------------------------|
B|77777777777777779999999999999999-|
G|66666666666666669999999999999999-|
D|77777777777777779999999999999999-|
A|---------------------------------|
E|---------------------------------|

Verse
e|---------------------------|
B|7~----------5~-----9~------|
G|6~----------6~-----9~------|
D|7~----------7~-----9~------|
A|---------------------------|
E|---------------------------|x2

e|------------------------|
B|--7-----7-----5-----9---|
G|-6-6---6-6---6-6---9-9--|
D|7---7-7---7-7---7-9---9-|
A|------------------------|
E|------------------------|x2

Chorus is the same as the Intro

Verse

Chorus

Break
e|-------------|
B|---------7-7-|
G|6--6--6--x-x-|
D|7--7--7--7-7-|
A|-------------|
E|-------------|

Outro
e|------------------------|
B|------------------------|
G|666--666444-666--666444-|
D|777--777777-777--777777-|
A|------------------------|
E|------------------------|

then
e|---------------------------------|
B|---------------------------------|
G|66666666666664446666666666666444-|
D|77777777777777777777777777777777-|
A|---------------------------------|
E|---------------------------------|

Guitar 2 - Sam

Intro
e|--9b10r9-----12b14r12-9-12-9----9b10r9-----12b14r12-9-------|
B|10------10-10-----------------10------10-10-----------12-10-|
G|------------------------------------------------------------|
D|------------------------------------------------------------|
A|------------------------------------------------------------|
E|------------------------------------------------------------|

Verse - "To the basement people, to the basement"
e|--------------------------------------------------------------------|
B|--------------------------------------------------------------------|
G|2222222222222222/666666666\11111112222222222222222/66666666\1111111-|
D|----------------------------------4444444444444444/77777777\2222222-|
A|--------------------------------------------------------------------|
E|--------------------------------------------------------------------|

Chorus is same as Intro

Verse

Chorus

Break
e|-------------------------|
B|7--7--7-10107--7--7-1010-|
G|x--x--x-x-x-x--x--x-x-x--|
D|4--4--4-7-7-4--4--4-7-7--|
A|-------------------------|
E|-------------------------|

Outro- Play this chord after Alex strums his
e|------------------------------|
B|------------------------------|
G|-----14-------------14--------|
D|-----x--------------x---------|
A|-----12-------------12--------|
E|------------------------------|

Below i've tabbed out both Guitars just so you can see how it fits in cos it can be hard 
ehar on the studio version
e|----------------------------|
B|----------------------------|
G|666-14-666444-666-14-666444-|
D|777-x--777777-777-x--777777-|
A|----12------------12--------|
E|----------------------------|

And then when it all speeds up play this until the end of the song
e|------------------------------------------------------|
B|------------------------------------------------------|
G|1414-141414-141414-141414-141414-141414-141414-141414-|
D|x-x--x-x-x--x-x-x--x-x-x--x-x-x--x-x-x--x-x-x--x-x-x--|
A|1212-121212-121212-121212-121212-121212-121212-121212-|
E|------------------------------------------------------|

Live he plays this instead
e|1717-171717-171717-171717-171717-171717-171717-171717-|
B|x-x--x-x-x--x-x-x--x-x-x--x-x-x--x-x-x--x-x-x--x-x-x--|
G|1414-141414-141414-141414-141414-141414-141414-141414-|
D|------------------------------------------------------|
A|------------------------------------------------------|
E|------------------------------------------------------|

Done :D

Should be all correct

I have to post you a link to the myspace to prove they exist as a band

Here it is http://www.myspace.com/twodoorcinemaclub
Suggest correction
Give kudos to tab author, rate the tab!
1 2 3 4 5
comments
print report bad tab
2 comments total.
0 reply
tom-047 10 Jun 23, 2010 06:20 PM

do you no when it goes 10 9b 10r 9 what does the R mean apart from that this is the best tab i have found thanks :D

0 reply
patch17 3,367 Jun 24, 2010 05:46 AM

r means release, when you un-bend the string back to normal..haha really the best tab you've found? the other tab of it on here is near perfect..cheers anyway!! :)

guest
You may want to rate the tab now too:
select rating
Wanna post a correction for this tab? Suggest correction