Oops, an error
Loading. Please wait.

Undercover Martyn Bass Tab

version 2
version 2

Whole song

Interactive

22,147 views 58 this week
2 commentsread comments
1 2 3 4 5
accurate
x 6
add to favorites
launch autoscroll
font size
0
reset
guitar tuner
Tab Pro tools
  • play this tab
  • loop segment
  • change instrument
  • show fretboard
  • metronome
×
Best way to learn
"Undercover Martyn"
Autoscroll
slow
fast
+/-
esc
set tempo
stop
Contributor
-------------------------------------------------------------------------------
			     UNDERCOVER MARTYN - Two Door Cinema Club
-------------------------------------------------------------------------------

Tabbed By : Leonard K.
Twitter:    @ohhleo
Tuning: 	   EADG

I took the Tourist History Promo Version. It'll go along with
http://bit.ly/9PN20H Have fun!



	INTRO (CHORUS)
  pause 4 bars
G|-------------------------------------------------------------- - -|
D|--------7-7-x-----------7-7-------------7-7-------------9-7-9-(7)-| 2x
A|5-5-5-5-------5-x-5-x-5-----5-5/9-9-9-9-----9-7-x-7-x-7------- - -|
E|-------------------------------------------------------------- - -|
  1-+-2-+-3-+-4-+-2-+-2-+-3-+-4-+-3-+-2-+-3-+-4-+-4-+-2-+-3-+-4- + -


	VERSE (1st time) "And she spoke words ..."
G|----------------------------------------------------------------|
D|----------------------------------------------------------------|
A|5-----------------------5/7-------------------------------------|
E|--------------------------------5---------------2-----------5---| 2x
  1-+-2-+-3-+-4-+-2-+-2-+-3-+-4-+-3-+-2-+-3-+-4-+-4-+-2-+-3-+-4-+-

G|----------------------------------------------------------------|
D|----------------------------------------------------------------|
A|5-x-5-x-5-x-5-x-5-x-5-x-5-x-5/7---------------------------------|
E|--------------------------------5-x-5-x-5-x-5-x-2-x-2-x-2-5-5-5-|
  1-+-2-+-3-+-4-+-2-+-2-+-3-+-4-+-3-+-2-+-3-+-4-+-4-+-2-+-3-+-4-+-

G|----------------------------------------------------------------|
D|----------------------------------------------------------------|
A|5-x-5-x-5-x-5-x-5-x-5-x-5-x-5/7---------------------------------|
E|--------------------------------5-x-5-x-5-x-5-x-2-x-2-x---2-2x--|
  1-+-2-+-3-+-4-+-2-+-2-+-3-+-4-+-3-+-2-+-3-+-4-+-4-+-2-+-3-+-4-+-


	CHORUS (1st time) "You hid there last time, ..."
G|-------------------------------------------------------------- - -|
D|--------7-7-x-----------7-7-------------7-7-------------9-7-9-(7)-| 4x
A|5-5-5-5-------5-x-5-x-5-----5-5-9-9-9-9-----9-7-x-7-x-7------- - -|
E|-------------------------------------------------------------- - -|
  1-+-2-+-3-+-4-+-2-+-2-+-3-+-4-+-3-+-2-+-3-+-4-+-4-+-2-+-3-+-4- + -


	VERSE (2nd time) "And she spoke words ..."
G|----------------------------------------------------------------|
D|----------------------------------------------------------------|
A|5-----------------------5/7-------------------------------------|
E|--------------------------------5---------------2-----------5---| 2x
  1-+-2-+-3-+-4-+-2-+-2-+-3-+-4-+-3-+-2-+-3-+-4-+-4-+-2-+-3-+-4-+-

G|----------------------------------------------------------------|
D|----------------------------------------------------------------|
A|5-x-5-x-5-x-5-x-5-x-5-x-5-x-5/7---------------------------------|
E|--------------------------------5-x-5-x-5-x-5-x-2-x-2-x-2-5-5-5-|
  1-+-2-+-3-+-4-+-2-+-2-+-3-+-4-+-3-+-2-+-3-+-4-+-4-+-2-+-3-+-4-+-

G|----------------------------------------------------------------|
D|----------------------------------------------------------------|
A|5-x-5-x-5-x-5-x-5-x-5-x-5-x-5/7---------------------------------|
E|--------------------------------5-x-5-x-5-x-5-x-2x--------------|
  1-+-2-+-3-+-4-+-2-+-2-+-3-+-4-+-3-+-2-+-3-+-4-+-4-+-2-+-3-+-4-+-


	CHORUS (2nd time) "You hid there last time, ..."
G|----------------------------------------------------------------|
D|--------7-7-x-----------7-7-------------7-7-------------9-7-9-7-|
A|5-5-5-5-------5-x-5-x-5-----5-5-9-9-9-9-----9-7-x-7-x-7---------|
E|----------------------------------------------------------------|
  1-+-2-+-3-+-4-+-2-+-2-+-3-+-4-+-3-+-2-+-3-+-4-+-4-+-2-+-3-+-4-+-

G|----------------------------------------------------------------|
D|--------7-7-x-----------7-7-------------7-7---------------------|
A|--5-5-5-------5-x-5-x-5-----5-5-9-9-9-9-----9x------------------|
E|----------------------------------------------------------------|
  1-+-2-+-3-+-4-+-2-+-2-+-3-+-4-+-3-+-2-+-3-+-4-+-4-+-2-+-3-+-4-+-

G|----------------------------------------------------------------|
D|--------7-7-x-----------7-7-------------7-7-------------9-7-9-7-|
A|5-5-5-5-------5-x-5-x-5-----5-5-9-9-9-9-----9-7-x-7-x-7---------|
E|----------------------------------------------------------------|
  1-+-2-+-3-+-4-+-2-+-2-+-3-+-4-+-3-+-2-+-3-+-4-+-4-+-2-+-3-+-4-+-

G|----------------------------------------------------------------|
D|--------7-7-x-----------7-7-------------7-7-------------9-7-9---|
A|5-5-5-5-------5-x-5-x-5-----5-5-9-9-9-9-----9-7-x-7-x-7---------|
E|----------------------------------------------------------------|
  1-+-2-+-3-+-4-+-2-+-2-+-3-+-4-+-3-+-2-+-3-+-4-+-4-+-2-+-3-+-4-+-


	BRIDGE
  pause 4 bars
G|----------------------------------------------------------------|
D|----------------------------------------------------------------|
A|----5x------5x------5x----7-x-7-x---5x------5x------5x----4-x---|
E|----------------------------------------------------------------|
  1-+-2-+-3-+-4-+-2-+-2-+-3-+-4-+-3-+-2-+-3-+-4-+-4-+-2-+-3-+-4-+-

G|--------------------------4-4-4--------------------------- - - - - - -|
D|---------------------------------------------------------- - - - - - -|
A|5---5---5-5-5x--5---5---5--------------------------------- - - - - - -|
E|--------------------------------5---5---5-5-5x--5---5---5-(7)-(7)-(7)-| 2x
  1-+-2-+-3-+-4-+-2-+-2-+-3-+-4-+-3-+-2-+-3-+-4-+-4-+-2-+-3- + - 4 - + -


CHORUS (3rd time) "You hid there last time, ..."
G|--------------------------4-4-4---------------------------------|
D|----------7-7-7-------------------------------------------------|
A|5-5-x-5-5-------5-5-x-5-5-----------------7-7-7-----------------|
E|--------------------------------5-5-x-5-5-------5-5-x-5-5-7-7-7-| 4x
  1-+-2-+-3-+-4-+-2-+-2-+-3-+-4-+-3-+-2-+-3-+-4-+-4-+-2-+-3-+-4-+-



| () do not play last time
| /  slide up
| \  slide down
| h  hammer-on
| p  pull-off
| ~  vibrato
| +  harmonic
| x  Mute note
===============================================================================
comments
print report bad tab
2 comments total.
0 reply
Cal! wrote on September 19 2010, 01:17 pm

I would maaaaaybe say the intro bit goes

G|------------------------|
D|---------------7-7-9-7--| at the end, if you see what i mean.
A|----7-x-7-x-7-----------|
E|------------------------|

But it sounds perfect anywho, 5 stars.

0 reply
papichullo88 wrote on April 4 2015, 11:54 pm

Yep this is excellent! fun to play along with, and sounds right :)

I want to post or [tab]
guest
You may want to rate the tab now too:
select rating
Please do not post tabs as comments. Select "correction" instead!