Oops, an error
Loading. Please wait.

Undercover Martyn Bass Tab

version 3
version 3

Whole song

Interactive

2,575 views 3 this week
no commentswrite comment
1 2 3 4 5
worth learning
x 4
add to favorites
launch autoscroll
font size
0
reset
guitar tuner
Autoscroll
slow
fast
+/-
esc
set tempo
stop
Help us to improve Ultimate-Guitar.com Take our survey!
×
Author
Artist: Two Door Cinema Club

Album: Tourist History

Song: Undercover Martyn


Intro

G||--------------------|--------------------|
D||-----------7-7--7---|-----------7-7------|
A||-5-5--5-5---------5-|---5----5-------5-5-|
E||--------------------|--------------------|

G||--------------------|--------------------||
D||-----------7-7------|-----------7-7--9---||  X2
A||-9-9--9-9-------9-7-|---7----7-----------||
E||--------------------|--------------------||


Verse

G||--------------------|--------------------|
D||--------------------|--------------------|
A||-5------------------|-----------5/7------|
E||--------------------|--------------------|

G||--------------------|--------------------||
D||--------------------|--------------------||  x2
A||--------------------|--------------------||
E||-5------------------|-2--------------5---||

---

G||--------------------|--------------------|
D||--------------------|--------------------|
A||-5----5----5----5---|-5----5----5----5-7-|
E||--------------------|--------------------|

G||--------------------|--------------------|
D||--------------------|--------------------|
A||--------------------|-------------0----0-|
E||-5----5----5----5---|-2----2----2----2---|

G||--------------------|--------------------|
D||--------------------|--------------------|
A||-5----5----5----5---|-5----5----5----5-7-|
E||--------------------|--------------------|

G||--------------------|--------------------|
D||--------------------|--------------------|
A||--------------------|--------------------|
E||-5----5----5----5---|-2----2------2--2---|


Chorus

G||--------------------|--------------------|
D||-----------7-7--7---|-----------7-7------|
A||-5-5--5-5---------5-|---5----5-------5-5-|
E||--------------------|--------------------|

G||--------------------|--------------------||
D||-----------7-7------|-----------7-7--9---||  X4
A||-9-9--9-9-------9-7-|---7----7-----------||
E||--------------------|--------------------||


Verse 2

G||--------------------|--------------------|
D||--------------------|--------------------|
A||-5------------------|-----------5/7------|
E||--------------------|--------------------|

G||--------------------|--------------------||
D||--------------------|--------------------||  x2
A||--------------------|--------------------||
E||-5------------------|-2--------------5---||

---

G||--------------------|--------------------|
D||--------------------|--------------------|
A||-5----5----5----5---|-5----5----5----5-7-|
E||--------------------|--------------------|

G||--------------------|--------------------|
D||--------------------|--------------------|
A||--------------------|-------------0----0-|
E||-5----5----5----5---|-2----2----2----2---|

G||--------------------|--------------------|
D||--------------------|--------------------|
A||-5----5----5----5---|-5----5----5----5-7-|
E||--------------------|--------------------|

G||--------------------|--------------------|
D||--------------------|--------------------|
A||--------------------|--------------------|
E||-5----5----5----5---|-2----2----2--------|


Chorus 2

G||--------------------|--------------------|
D||-----------7-7--7---|-----------7-7------|
A||-5-5--5-5---------5-|---5----5-------5-5-|
E||--------------------|--------------------|

G||--------------------|--------------------||
D||-----------7-7------|-----------7-7--9---||
A||-9-9--9-9-------9-7-|---7----7-----------||
E||--------------------|--------------------||


G||--------------------|--------------------|
D||-----------7-7--7---|-----------7-7------|
A||-5-5--5-5---------5-|---5----5-------5-5-|
E||--------------------|--------------------|

G||--------------------|--------------------||
D||-----------7-7------|--------------------||
A||-9-9--9-9-------9-7-|--------------------||
E||--------------------|--------------------||


G||--------------------|--------------------|
D||-----------7-7--7---|-----------7-7------|
A||-5-5--5-5---------5-|---5----5-------5-5-|
E||--------------------|--------------------|

G||--------------------|--------------------||
D||-----------7-7------|-----------7-7--9---||  X2
A||-9-9--9-9-------9-7-|---7----7-----------||
E||--------------------|--------------------||

(wait)

Outro

G||--------------------|--------------------|
D||--------------------|--------------------|
A||------5---------5---|------5------7----7-|
E||--------------------|--------------------|

G||--------------------|--------------------|
D||--------------------|--------------------|
A||------5---------5---|------5-------------|
E||--------------------|-------------7------|

---

G||--------------------|--------------------|
D||--------------------|--------------------|
A||-5----5----5--------|-5----5----5--------|
E||--------------------|-------------7--7-7-|

G||--------------------|--------------------|
D||--------------------|--------------------|
A||--------------------|--------------------|
E||-5----5----5--------|-5----5----5-7--7-7-|

G||--------------------|--------------------|
D||--------------------|--------------------|
A||-5----5----5--------|-5----5----5--------|
E||--------------------|-------------7--7-7-|

G||--------------------|--------------------|
D||--------------------|--------------------|
A||--------------------|--------------------|
E||-5----5----5--------|-5----5------2--2---|


Chorus 3

G||--------------------|--------------------|
D||-------------7--7---|-------------7------|
A||-5-5----5--5------5-|-5-5----5--5----2---|
E||--------------------|--------------------|

G||--------------------|--------------------||
D||--------------------|--------------------||  x3
A||-0-0----0-0--7--7-0-|-0-0----0--0-7------||
E||--------------------|----------------7---||


G||--------------------|--------------------|
D||-------------7--7---|-------------7------|
A||-5-5----5--5------5-|-5-5----5--5----2---|
E||--------------------|--------------------|

G||--------------------|--------------------||
D||--------------------|--------------------||
A||-0-0----0-0--7--7-0-|-0-0----0--0-7--0-5-||
E||--------------------|--------------------||


tab by: Pedro Zappa
Suggest correction
What's this?
You can suggest a correction to this tab. Community and Mods will review your correction and vote to approve or reject it.
comments
print report bad tab
guest
You may want to rate the tab now too:
select rating
Please do not post tabs as comments. Select "correction" instead!