Oops, an error
Loading. Please wait.

Wake Up Bass Tab

version 1
version 1

Whole song

2,231 views 1 this week
no commentswrite comment
1 2 3 4 5
please rate
add to favorites
launch autoscroll
font size
0
reset
guitar tuner
Autoscroll
slow
fast
+/-
esc
set tempo
stop
Help us to improve Ultimate-Guitar.com Take our survey!
×
Author
Difficulty
intermediate
-----------------------------------------------------------------------------
                             Wake Up - Two Door Cinema Club
-----------------------------------------------------------------------------
Tabbed by: PendulumMan24
Tuning: Standard

All Parts In Order Of Play

G|----------3---------1-----------3--------|
D|------------------3---3-----------8-66---| x4
A|-1-1-1-1----1-1-1-------1-1-1-1--------6-|
E|-----------------------------------------|

G|----------3---------1-----------3---|
D|------------------3---3-------------|
A|-1-1-1-1----1-1-1-------1-1-1-1---1-|
E|------------------------------------|

G|---------------------------------1---|
D|-44444444-11111111-------------3---3-| x2
A|-------------------1-1-1-1-1-1-------|
E|-------------------------------------|

G|----------3---------1-----------3---|
D|------------------3---3-------------|
A|-1-1-1-1----1-1-1-------1-1-1-1---1-|
E|------------------------------------|

G|----------3---------1-----------3--------|
D|------------------3---3-----------8-66---| x2
A|-1-1-1-1----1-1-1-------1-1-1-1--------6-|
E|-----------------------------------------|

G|---------------------------------1---|
D|-44444444-11111111-------------3---3-| x2
A|-------------------1-1-1-1-1-1-------|
E|-------------------------------------|

G|--------------------------------------|
D|-44444444-11111111--------------------| x2
A|-------------------44444444-11111111--|
E|--------------------------------------|

G|----------------------63------63--|    |
D|------34------68------------------|    |
A|-44444---66666---11111---11111----|    |
E|----------------------------------|    |
                                         | x2
G|----------------------6------6-|       |
D|------34------68-44444---44444-|       |
A|-44444---66666-----------------|       |
E|-------------------------------|       |

G|--------------------------------------|
D|-44444444-11111111-------------8-6----| x2
A|-------------------11111111111-----6--|
E|--------------------------------------|

G|--------------------------------------|
D|-44444444-11111111--------------------|
A|-------------------44444444-11111111--|
E|--------------------------------------|

G|----------------------63------63--|    |
D|------34------68------------------|    |
A|-44444---66666---11111---11111----|    |
E|----------------------------------|    |
                                         | x2
G|----------------------6------6-|       |
D|------34------68-44444---44444-|       |
A|-44444---66666-----------------|       |
E|-------------------------------|       |


G|------31--------------86-------86--|
D|--------3------6--------8--------8-| x3
A|-11111----44444--66666----66666----|
E|-----------------------------------|

G|------31-------------------------|
D|--------3------6-----------------|
A|-11111----44444--6-(Let It Ring)-|
E|---------------------------------|
Suggest correction
Give kudos to tab author, rate the tab!
1 2 3 4 5
comments
print report bad tab
guest
You may want to rate the tab now too:
select rating
Wanna post a correction for this tab? Suggest correction