Oops, an error
Loading. Please wait.

Wake Up tab

version 1
version 1

Whole song

331 views 6 this week
no commentswrite comment
1 2 3 4 5
1 last vote to show rating
add to favorites
×
Save as Personal and add changes to this tab that will be seen only by you. Learn more ›
×
You can save this tab as Personal to edit and correct it or add notes. All changes will be seen only by you. Learn more »
launch autoscroll
font size
0
reset
how to read this tab
guitar tuner
edit
Autoscroll
slow
fast
+/-
esc
set tempo
stop
Artist: Two Door Cinema Club
Song: Wake Up
Album: Beacon
Tabbed by: gustavoaraujo999@hotmail.com

**This is just the lead.

0:07
e|----------------------|
B|---------------999999-|
G|----------------------|
D|-6-8-666-8-6-8--------|
A|----------------------|
E|----------------------|

0:22
e|---------------------|
B|---------------------|
G|--------------8-8----|
D|-6-8--888-6-8-----8--|
A|---------------------|
E|---------------------|

e|----------------------|
B|---------------999999-|
G|----------------------|
D|-6-8-666-8-6-8--------|
A|----------------------|
E|----------------------|

0:36
e|----16-----------------------16---16------|
B|----------16-18---------------------------|
G|-15----15-------15151515--15--------------|
D|------------------------------------------|
A|------------------------------------------|
E|------------------------------------------|

e|-18-16------------------------18-16---16-----------------------|
B|-------18-16-18---------------------18---1818181818181818------|
G|----------------151515151515-----------------------------------|
D|---------------------------------------------------------------|
A|---------------------------------------------------------------|
E|---------------------------------------------------------------|

e|----16-----------------------16---16------|
B|----------16-18---------------------------|
G|-15----15-------15151515--15--------------|
D|------------------------------------------|
A|------------------------------------------|
E|------------------------------------------|

e|-18-16------------------------18-16---16-----------------------|
B|-------18-16-18---------------------18---1818181818181818------|
G|----------------151515151515-----------------------------------|
D|---------------------------------------------------------------|
A|---------------------------------------------------------------|
E|---------------------------------------------------------------|

0:50
e|--------------------------------------------------------------|
B|------------------------------9999-------------999999---------|
G|-8-6-888-6-8-8-8-8b9br8p6-------------------------------------|
D|-------------------------h8-6------6-8-6666-8\----------------|
A|--------------------------------------------------------------|
E|--------------------------------------------------------------|

0:56
e|---------------------|
B|---------------------|
G|--------------8-8----|
D|-6-8--888-6-8-----8--|
A|---------------------|
E|---------------------|

e|----------------------|
B|---------------999999-|
G|----------------------|
D|-6-8-666-8-6-8--------|
A|----------------------|
E|----------------------|

1:09
e|--------------------------16\---16\----------------------------|
B|-16-16b18br16-14----14-----------------------------------------|
G|-----------------15----15--------------------------------------|
D|---------------------------------------------------------------|
A|---------------------------------------------------------------|
E|---------------------------------------------------------------|

1:11
e|-16\------16\-------16\---------16\-------|
B|------------------------------------------|
G|------------------------------------------|
D|------------------------------------------|
A|------------------------------------------|
E|------------------------------------------|

e|-18-16------------------------18-16---16-----------------------|
B|-------18-16-18---------------------18---1818181818181818------|
G|----------------151515151515-----------------------------------|
D|---------------------------------------------------------------|
A|---------------------------------------------------------------|
E|---------------------------------------------------------------|

e|----16-----------------------16---16------|
B|----------16-18---------------------------|
G|-15----15-------15151515--15--------------|
D|------------------------------------------|
A|------------------------------------------|
E|------------------------------------------|

e|-18-16------------------------18-16---16-----------------------|
B|-------18-16-18---------------------18---1818181818181818------|
G|----------------151515151515-----------------------------------|
D|---------------------------------------------------------------|
A|---------------------------------------------------------------|
E|---------------------------------------------------------------|

1:25
e|--------------------------------------------/16-16-16-18-18\--/16-16-16-18-18\-|
B|----16----14-16-181818-----16----14-16-1818------------------------------------|
G|-15----15---------------15----15-----------------------------------------------|
D|-------------------------------------------------------------------------------|
A|-------------------------------------------------------------------------------|
E|-------------------------------------------------------------------------------|

e|--------------------------------------------/16-16-16-18-18\--/16-16-16-18-18\-|
B|----16----14-16-181818-----16----14-16-1818------------------------------------|
G|-15----15---------------15----15-----------------------------------------------|
D|-------------------------------------------------------------------------------|
A|-------------------------------------------------------------------------------|
E|-------------------------------------------------------------------------------|

1:39
e|---/16-16-16-18-18\--/16-16-16-18-18\--/16-16-16-18-18\--/16-16-16-18-18\--|
B|---------------------------------------------------------------------------|
G|---------------------------------------------------------------------------|
D|---------------------------------------------------------------------------|
A|---------------------------------------------------------------------------|
E|---------------------------------------------------------------------------|

1:44
e|-------------------------------1616--------|
B|-1818-1616-18-16-181818-161616------1818---|
G|-------------------------------------------|
D|-----------------------------[x3]----------|
A|-------------------------------------------|
E|-------------------------------------------|

e|-------------------------------------------|
B|-1818-1616-18-16---------------------------|
G|-----------------1515151515151515----------|
D|-------------------------------------------|
A|-------------------------------------------|
E|-------------------------------------------|

1:57
e|-------------------------------------------------------------------------|
B|-18192121212121---2119181818---18192121212121---2119181818---------------|
G|-------------------------------------------------------------------------|
D|-------------------------------------------------------------------------|
A|-------------------------------------------------------------------------|
E|-------------------------------------------------------------------------|

e|---------------------------------------------------------------|
B|-18192121212121---2119181818---18192121212121------------------|
G|-----------------------------------------------18181818181818--|
D|---------------------------------------------------------------|
A|---------------------------------------------------------------|
E|---------------------------------------------------------------|

e|-------------------------------------------------------------------------|
B|-18192121212121---2119181818---18192121212121--------18------------------|
G|-----------------------------------------------181818--18----------------|
D|-------------------------------------------------------------------------|
A|-------------------------------------------------------------------------|
E|-------------------------------------------------------------------------|

2:08
e|---------------------------------------------------------------|
B|---------------------------------------------------------------|
G|---------------------------------------------------------------|
D|---8---8---8---8---8---8---8-----------------------------------|
A|---------------------------------------------------------------|
E|-6---6---6---6---6---6---6---6---------------------------------|

2:11
e|----16-----------------------16---16------|
B|----------16-18---------------------------|
G|-15----15-------15151515--15--------------|
D|------------------------------------------|
A|------------------------------------------|
E|------------------------------------------|

e|-18-16------------------------18-16---16-----------------------|
B|-------18-16-18---------------------18---1818181818181818------|
G|----------------151515151515-----------------------------------|
D|---------------------------------------------------------------|
A|---------------------------------------------------------------|
E|---------------------------------------------------------------|

e|----16-----------------------16---16------|
B|----------16-18---------------------------|
G|-15----15-------15151515--15--------------|
D|------------------------------------------|
A|------------------------------------------|
E|------------------------------------------|

e|-18-16------------------------18-16---16-----------------------|
B|-------18-16-18---------------------18---1818181818181818------|
G|----------------151515151515-----------------------------------|
D|---------------------------------------------------------------|
A|---------------------------------------------------------------|
E|---------------------------------------------------------------|

2:25
e|--------------------------------------------/16-16-16-18-18\--/16-16-16-18-18\-|
B|----16----14-16-181818-----16----14-16-1818------------------------------------|
G|-15----15---------------15----15-----------------------------------------------|
D|-------------------------------------------------------------------------------|
A|-------------------------------------------------------------------------------|
E|-------------------------------------------------------------------------------|

e|--------------------------------------------/16-16-16-18-18\--/16-16-16-18-18\-|
B|----16----14-16-181818-----16----14-16-1818------------------------------------|
G|-15----15---------------15----15-----------------------------------------------|
D|-------------------------------------------------------------------------------|
A|-------------------------------------------------------------------------------|
E|-------------------------------------------------------------------------------|

2:40
e|-------------------------------1616--------|
B|-1818-1616-18-16-181818-161616------1818---|
G|-------------------------------------------|
D|-----------------------------[x3]----------|
A|-------------------------------------------|
E|-------------------------------------------|

e|-------------------------------------------|
B|-1818-1616-18-16---------------------------|
G|-----------------1515151515151515----------|
D|-------------------------------------------|
A|-------------------------------------------|
E|-------------------------------------------|

2:54
e|-------------------------------------------------------------------------|
B|-18192121212121---2119181818---18192121212121---2119181818---------------|
G|-------------------------------------------------------------------------|
D|-------------------------------------------------------------------------|
A|-------------------------------------------------------------------------|
E|-------------------------------------------------------------------------|

e|---------------------------------------------------------------|
B|-18192121212121---2119181818---18192121212121------------------|
G|-----------------------------------------------18181818181818--|
D|---------------------------------------------------------------|
A|---------------------------------------------------------------|
E|---------------------------------------------------------------|

e|-------------------------------------------------------------------------|
B|-18192121212121---2119181818---18192121212121--------18------------------|
G|-----------------------------------------------181818--18----------------|
D|-------------------------------------------------------------------------|
A|-------------------------------------------------------------------------|
E|-------------------------------------------------------------------------|

3:04
e|---------------------------------------------------------------|
B|-16-16-16-18---16-16-16-18---16-16-16-18-----------------------|
G|---------------------------------------------------------------|
D|---------------------------------------------------------------|
A|---------------------------------------------------------------|
E|---------------------------------------------------------------|

e|-16-16-16-18---16-16-16-1818181818-18-16-----------------------|
B|-----------------------------------------18181818-16161616-----|
G|---------------------------------------------------------------|
D|---------------------------------------------------------------|
A|---------------------------------------------------------------|
E|---------------------------------------------------------------|

e|-16-16-16-18---16-16-16-1818181818---212121212121-18~----------|
B|---------------------------------------------------------------|
G|---------------------------------------------------------------|
D|---------------------------------------------------------------|
A|---------------------------------------------------------------|
E|---------------------------------------------------------------|

            
            
Suggest correction
Creating personal tab
Creating personal tab
You can edit any tab online and save it as your Personal.

You can edit, replace or remove any tab part or add personal notes – all changes will be seen only by you.

Personal tabs can be accessed anytime from any device, even offline.
Learn more »
Give kudos to tab author, rate the tab!
1 2 3 4 5
comments
print report bad tab
guest
You may want to rate the tab now too:
select rating
Wanna post a correction for this tab? Suggest correction