Oops, an error
Loading. Please wait.

Wake Up Bass Tab

version 2
version 2

Whole song

3,585 views 9 this week
1 commentread comment
1 2 3 4 5
excellent!
x 7
add to favorites
launch autoscroll
font size
0
reset
guitar tuner
Tab Pro tools
  • play this tab
  • loop segment
  • change instrument
  • show fretboard
  • metronome
×
Best way to learn
"Wake Up"
Autoscroll
slow
fast
+/-
esc
set tempo
stop
Contributor
Difficulty
intermediate
Tuning Standard 

Intro:
G|-----------15----------13--------------15----------------|
D|---------------------15--15------------------------------|
A|13-13-13-13--13-13-13-------13-13-13-13--13-13-9/13-11-8-|(x4)
E|---------------------------------------------------------|
                                   
G|-----------15----------13--------------15-------------|   
D|---------------------15--15---------------------------| 
A|13-13-13-13--13-13-13-------13-13-13-13--13~~---6-6h8-|      
E|------------------------------------------------------| 

G|---------------------------------------------15----------------|
D|---------------------------------------------------------------|
A|9-9-9-9-9-9-9-9-6-6-6-6-6-6-11-11-13-13-13-13--13-13-9/13-11-8-|
E|---------------------------------------------------------------|

G|---------------------------------------------15------------|
D|-----------------------------------------------------------|
A|9-9-9-9-9-9-9-9-6-6-6-6-6-6-11-11-13-13-13-13--13-13-13-13-|
E|-----------------------------------------------------------|

G|-----------15----------13--------------15-------------|
D|---------------------15--15---------------------------|
A|13-13-13-13--13-13-13-------13-13-13-13--13~~---6-6h8-|
E|------------------------------------------------------|

G|-----------15----------13--------------15----------------|
D|---------------------15--15------------------------------|
A|13-13-13-13--13-13-13-------13-13-13-13--13-13-9/13-11-8-|
E|---------------------------------------------------------|

G|-----------15----------13--------------15-------------|
D|---------------------15--15---------------------------|
A|13-13-13-13--13-13-13-------13-13-13-13--13~~---6-6h8-|
E|------------------------------------------------------|

G|---------------------------------------------15----------------|
D|---------------------------------------------------------------|
A|9-9-9-9-9-9-9-9-6-6-6-6-6-6-11-11-13-13-13-13--13-13-9/13-11-8-|(x2)
E|---------------------------------------------------------------|

G|----------------------------------------------------------------|
D|----------------------------------------------------------------|
A|9-9-9-9-9-9-9-9-6-6-6-6-6-6-6-6-4-4-4-4-4-4-6-4-1-1-1-1-1-1-1-1-|
E|----------------------------------------------------------------|

G|-----------------------------------------------------------------|
D|------------------------------6-6--------------------------------|
A|9-9-9-9-9-9-9-9-6-6-6-6-6-6-6-----1-1-1-1-1-1-1-1-1-1-1-1-1-1-1-1|
E|-----------------------------------------------------------------|

G|--------------------------6---------6---|
D|------3-4-------6-8---------8---------8-|
A|44444-----66666-----11111-----11111-----|
E|----------------------------------------|

G|--------------------------6~-------6------|
D|------3-4-------6-8-44444---444444--8-6h8-|
A|44444-----66666---------------------------|
E|------------------------------------------|

G|------------11---------------8---------------6---------------3---|
D|-----------------------------------------------------------------|
A|9-9-9-9-9-9----9-6-6-6-6-6-6---6-4-4-4-4-4-4---4-1-1-1-1-1-1---1-|
E|-----------------------------------------------------------------|

G|------------11-------------------------|
D|---------------------------------------|
A|9-9-9-9-9-9----9-6-6-6-6-6-6-11-11-13~-|
E|---------------------------------------|

G|----------------------------------------------15-----------------|
D|-----------------------------------------------------------------|(x2)
A|9-9-9-9-9-9-9-9-6-6-6-6-6-6-11-11-13-13-13-13----13-13-9/13-11-8-|
E|-----------------------------------------------------------------|

G|----------------------------------------------------------------|
D|----------------------------------------------------------------|
A|9-9-9-9-9-9-9-9-6-6-6-6-6-6-6-6-4-4-4-4-4-4-6-4-1-1-1-1-1-1-1-1-|
E|----------------------------------------------------------------|

G|------------------------------------------------------------------|
D|----------------------------6-6-6---------------------------------|
A|9-9-9-9-9-9-9-9-6-6-6-6-6-6-------1-1-1-1-1-1-1-1-1-1-1-1-1-1-1-1-|
E|------------------------------------------------------------------|

G|--------------------------6---------6---|
D|------3-4-------6-8---------8---------8-|
A|44444-----66666-----11111-----11111-----|
E|----------------------------------------|

G|--------------------------6~-------6-------|
D|------3-4-------6-8-44444---444444---8-6h8-|
A|44444-----66666----------------------------|
E|-------------------------------------------|

G|------------11---------------8---------------6---------------3---|
D|-----------------------------------------------------------------|
A|9-9-9-9-9-9----9-6-6-6-6-6-6---6-4-4-4-4-4-4---4-1-1-1-1-1-1---1-|
E|-----------------------------------------------------------------|

The end is just a repeat of a previous section of the song.
comments
print report bad tab
1 comment total.
0 reply
gustavoaraujo9 wrote on July 20 2014, 12:00 pm

The end is a repeat of what previous section exatly? I can't seem to find it.

I want to post or [tab]
guest
You may want to rate the tab now too:
select rating
Please do not post tabs as comments. Select "correction" instead!