Oops, an error
Loading. Please wait.

What You Know Bass Tab

version 1
version 1

Whole song

Interactive

89,143 views 30 this week
5 commentsread comments
1 2 3 4 5
x 12
add to favorites
launch autoscroll
font size
0
reset
guitar tuner
backing track
0:00
0:00
Autoscroll
slow
fast
+/-
esc
set tempo
stop
Help us to improve Ultimate-Guitar.com Take our survey!
×
Difficulty
novice
New Contributor: Teh D Bot
Original Song at Bottom

[Intro]
G|-----------------------------------------------------------------|
D|------------------------------------------------/11------6-------|
A|-9-----9-r---9---9-----9-r---9---9-----9-r---9-------------------|
E|-----------------------------------------------------------------|
   1 e + a 2 e + a 3 e + a 4 e + a 1 e + a 2 e + a 3 e + a 4 e + a 

G|-----------------------------------------------------------------|
D|-----------------------------------------------/-7---------------|
A|-0-----0-r---0---0-----0-r---0---0-----0-r---0-----------7---9---|
E|-----------------------------------------------------------------|
   1 e + a 2 e + a 3 e + a 4 e + a 1 e + a 2 e + a 3 e + a 4 e + a 

G|-----------------------------------------------------------------|
D|-----------------------------------------------/-11------7-------|
A|-5-----5-r---5---5-----5-r---5---5-----5-r---5-------------------|
E|-----------------------------------------------------------------|
   1 e + a 2 e + a 3 e + a 4 e + a 1 e + a 2 e + a 3 e + a 4 e + a 

G|-----------------------------------------------------------------|
D|-----------------------------------------------------------------|
A|-------------------------------------------------4-------7-------|
E|-2-----2-r---2---2-----2-r---2---2-----2-r---2-------------------|
   1 e + a 2 e + a 3 e + a 4 e + a 1 e + a 2 e + a 3 e + a 4 e + a 

Rest

[Verse]
G|-----------------------------------|-----------------------------------|
D|o-------11--------11----7-----9---o|o-------9---------9-----7-----9---o|
A|o-9-----------9-------------------o|o-7-----------7-------------------o|
E|-----------------------------------|-----------------------------------|
    1 e + a 2 e + a 3 e + a 4 e + a     1 e + a 2 e + a 3 e + a 4 e + a 

G|-----------------------------------|-----------------------------------|
D|o-------7---------7-----4-----7---o|o-------4---------------4---------o|
A|o-4-----------4-------------------o|o-5-----------5---5-----------5---o|
E|-----------------------------------|-----------------------------------|
    1 e + a 2 e + a 3 e + a 4 e + a     1 e + a 2 e + a 3 e + a 4 e + a 

[Chorus]
G|-----------------------------------------------------------------|
D|------------------------------------------------/11------6-------|
A|-9-----9-r---9---9-----9-r---9---9-----9-r---9-------------------|
E|-----------------------------------------------------------------|
   1 e + a 2 e + a 3 e + a 4 e + a 1 e + a 2 e + a 3 e + a 4 e + a 

G|-----------------------------------------------------------------|
D|-----------------------------------------------/-7---------------|
A|-0-----0-r---0---0-----0-r---0---0-----0-r---0-----------7---9---|
E|-----------------------------------------------------------------|
   1 e + a 2 e + a 3 e + a 4 e + a 1 e + a 2 e + a 3 e + a 4 e + a 

G|-----------------------------------------------------------------|
D|-----------------------------------------------/-11------7-------|
A|-5-----5-r---5---5-----5-r---5---5-----5-r---5-------------------|
E|-----------------------------------------------------------------|
   1 e + a 2 e + a 3 e + a 4 e + a 1 e + a 2 e + a 3 e + a 4 e + a 

G|-----------------------------------------------------------------|
D|-----------------------------------------------------------------|
A|-------------------------------------------------4-------7---9---|
E|-2-----2-r---2---2-----2-r---2---2-----2-r---2-------------------|
   1 e + a 2 e + a 3 e + a 4 e + a 1 e + a 2 e + a 3 e + a 4 e + a 

G|-----------------------------------------------------------------|
D|------------------------------------------------/11------6-------|
A|-9-----9-r---9---9-----9-r---9---9-----9-r---9-------------------|
E|-----------------------------------------------------------------|
   1 e + a 2 e + a 3 e + a 4 e + a 1 e + a 2 e + a 3 e + a 4 e + a 

G|-----------------------------------------------------------------|
D|-----------------------------------------------/-7---------------|
A|-0-----0-r---0---0-----0-r---0---0-----0-r---0-----------7---9---|
E|-----------------------------------------------------------------|
   1 e + a 2 e + a 3 e + a 4 e + a 1 e + a 2 e + a 3 e + a 4 e + a 

G|-----------------------------------------------------------------|
D|-----------------------------------------------/-11------7-------|
A|-5-----5-r---5---5-----5-r---5---5-----5-r---5-------------------|
E|-----------------------------------------------------------------|
   1 e + a 2 e + a 3 e + a 4 e + a 1 e + a 2 e + a 3 e + a 4 e + a 

G|-----------------------------------------------------------------|
D|-----------------------------------------------------------------|
A|-------------------------------------------------4-------7-------|
E|-2-----2-r---2---2-----2-r---2---2-----2-r---2-------------------|
   1 e + a 2 e + a 3 e + a 4 e + a 1 e + a 2 e + a 3 e + a 4 e + a 

[Verse]
G|o|-----------------------------------|-----------------------------------|
D|-|o-------11--------11----7-----9---o|o-------9---------9-----7-----9---o|
A|-|o-9-----------9-------------------o|o-7-----------7-------------------o|
E|o|-----------------------------------|-----------------------------------|
      1 e + a 2 e + a 3 e + a 4 e + a     1 e + a 2 e + a 3 e + a 4 e + a 

G|-----------------------------------|-----------------------------------|o|
D|o-------7---------7-----4-----7---o|o-------4---------------4---------o|-|
A|o-4-----------4-------------------o|o-5-----------5---5-----------5---o|-|
E|-----------------------------------|-----------------------------------|o|
    1 e + a 2 e + a 3 e + a 4 e + a     1 e + a 2 e + a 3 e + a 4 e + a 

[Chorus]
G|------------------------------------------------------------------|
D|o------------------------------------------------/11------6-------|
A|o-9-----9-r---9---9-----9-r---9---9-----9-r---9-------------------|
E|------------------------------------------------------------------|
    1 e + a 2 e + a 3 e + a 4 e + a 1 e + a 2 e + a 3 e + a 4 e + a 

G|-----------------------------------------------------------------|
D|-----------------------------------------------/-7---------------|
A|-0-----0-r---0---0-----0-r---0---0-----0-r---0-----------7---9---|
E|-----------------------------------------------------------------|
   1 e + a 2 e + a 3 e + a 4 e + a 1 e + a 2 e + a 3 e + a 4 e + a 

G|-----------------------------------------------------------------|
D|-----------------------------------------------/-11------7-------|
A|-5-----5-r---5---5-----5-r---5---5-----5-r---5-------------------|
E|-----------------------------------------------------------------|
   1 e + a 2 e + a 3 e + a 4 e + a 1 e + a 2 e + a 3 e + a 4 e + a 

G|------------------------------------------------------------------|
D|-----------------------------------------------------------------o|
A|-------------------------------------------------4-------7-------o|
E|-2-----2-r---2---2-----2-r---2---2-----2-r---2--------------------|
   1 e + a 2 e + a 3 e + a 4 e + a 1 e + a 2 e + a 3 e + a 4 e + a 

Rest

[Bridge]
G|-----------------------------------------------------------------|
D|-----------------------------------------------------------------|
A|-9---9-9-9---9---9---9---9---9---4---4-4-4---4---4---4---4---4---|
E|-----------------------------------------------------------------|
   1 e + a 2 e + a 3 e + a 4 e + a 1 e + a 2 e + a 3 e + a 4 e + a 

G|-----------------------------------------------------------------|
D|-----------------------------------------------------------------|
A|---------------------------------4---4---4---4---4---4---7---7---|
E|-2---2-2-2---2---2---2---2---2-----------------------------------|
   1 e + a 2 e + a 3 e + a 4 e + a 1 e + a 2 e + a 3 e + a 4 e + a 

G|-----------------------------------------------------------------|
D|-------------------------7---------------------------------------|
A|-9---9-9-9---9---9---9-------9---4---4-4-4---4---4---4---7---7---|
E|-----------------------------------------------------------------|
   1 e + a 2 e + a 3 e + a 4 e + a 1 e + a 2 e + a 3 e + a 4 e + a 

G|-----------------------------------------------------------------|
D|-----------------------------------------------------------------|
A|---------------------------------4---4---4---4---4---4---0---4---|
E|-2---2-2-2---2---2---2---2---2-----------------------------------|
   1 e + a 2 e + a 3 e + a 4 e + a 1 e + a 2 e + a 3 e + a 4 e + a 

[Chorus]
G|-----------------------------------------------------------------|
D|------------------------------------------------/11------6-------|
A|-9-----9-r---9---9-----9-r---9---9-----9-r---9-------------------|
E|-----------------------------------------------------------------|
   1 e + a 2 e + a 3 e + a 4 e + a 1 e + a 2 e + a 3 e + a 4 e + a 

G|-----------------------------------------------------------------|
D|-----------------------------------------------/-7---------------|
A|-0-----0-r---0---0-----0-r---0---0-----0-r---0-----------7---9---|
E|-----------------------------------------------------------------|
   1 e + a 2 e + a 3 e + a 4 e + a 1 e + a 2 e + a 3 e + a 4 e + a 

G|-----------------------------------------------------------------|
D|-----------------------------------------------/-11------7-------|
A|-5-----5-r---5---5-----5-r---5---5-----5-r---5-------------------|
E|-----------------------------------------------------------------|
   1 e + a 2 e + a 3 e + a 4 e + a 1 e + a 2 e + a 3 e + a 4 e + a 

G|-----------------------------------------------------------------|
D|-----------------------------------------------------------------|
A|-------------------------------------------------4---4---7-------|
E|-2-----2-r---2---2-----2-r---2---2-----2-r---2-------------------|
   1 e + a 2 e + a 3 e + a 4 e + a 1 e + a 2 e + a 3 e + a 4 e + a 

G|-----------------------------------------------------------------|
D|------------------------------------------------/11------6-------|
A|-9-----9-r---9---9-----9-r---9---9-----9-r---9-------------------|
E|-----------------------------------------------------------------|
   1 e + a 2 e + a 3 e + a 4 e + a 1 e + a 2 e + a 3 e + a 4 e + a 

G|-----------------------------------------------------------------|
D|-----------------------------------------------/-7---------------|
A|-0-----0-r---0---0-----0-r---0---0-----0-r---0-----------7---9---|
E|-----------------------------------------------------------------|
   1 e + a 2 e + a 3 e + a 4 e + a 1 e + a 2 e + a 3 e + a 4 e + a 

G|-----------------------------------------------------------------|
D|-----------------------------------------------/-11------7-------|
A|-5-----5-r---5---5-----5-r---5---5-----5-r---5-------------------|
E|-----------------------------------------------------------------|
   1 e + a 2 e + a 3 e + a 4 e + a 1 e + a 2 e + a 3 e + a 4 e + a 

G|-----------------------------------------------------------------|
D|-----------------------------------------------------------------|
A|-------------------------------------------------------4---------|
E|-2-----2-r---2---2-----2-r---2---2-----2-r---2---2---------------|
   1 e + a 2 e + a 3 e + a 4 e + a 1 e + a 2 e + a 3 e + a 4 e + a

===================================================================

[Intro] no bass (0:00-0:13)

[Chorus] (0:13-0:27)
G|----------------6-------------------2------------------------|
D|-4-4-44-4-44-4-4--6-------------------2h4----------------6-2-|
A|--------------------0-0-00-0-00-0-0-------5-5-55-5-55-5-5----|
E|-------------------------------------------------------------|

G|--------------------|
D|------------------2-|
A|----------------4---|
E|-2-2-22-2-22-2-2----|

No bass (0:27-0:41)

[Verse] (0:41-0:55)
G|---6-6-2-4---6-6-2-4---4-4-2-4---4-4-2-4-|
D|-4--4------4--4------2--2------2--2------|
A|-----------------------------------------|
E|-----------------------------------------|

G|------------------------------------------|
D|---7-7-2-4---7-7-2-4---4----4----4----4---|
A|-4--4------4--4------5---55---55---55---5-|
E|------------------------------------------|

[Chorus] x2 (0:55-1:23)
G|----------------6-------------------2------------------------|
D|-4-4-44-4-44-4-4--6-------------------2h4----------------6-2-|
A|--------------------0-0-00-0-00-0-0-------5-5-55-5-55-5-5----|
E|-------------------------------------------------------------|

G|--------------------|
D|------------------2-| 
A|----------------4---|
E|-2-2-22-2-22-2-2----|

[Verse] x2 (1:23-1:50)
G|---6-6-2-4---6-6-2-4---4-4-2-4---4-4-2-4-|
D|-4--4------4--4------2--2------2--2------|
A|-----------------------------------------|
E|-----------------------------------------|

G|------------------------------------------|
D|---7-7-2-4---7-7-2-4---4----4----4----4---|
A|-4--4------4--4------5---55---55---55---5-|
E|------------------------------------------|

[Chorus] x2 (1:50-2:18)
G|----------------6-------------------2------------------------|
D|-4-4-44-4-44-4-4--6-------------------2h4----------------6-2-|
A|--------------------0-0-00-0-00-0-0-------5-5-55-5-55-5-5----|
E|-------------------------------------------------------------|

G|--------------------|
D|------------------2-|
A|----------------4---|
E|-2-2-22-2-22-2-2----|

[No bass] (2:18-2:21)

[Interlude] (2:21-2:35)
G|----------------------------------|
D|-44444444-------------------------| x2
A|---------44444444--------44444444-|
E|-----------------22222222---------|

[Chorus] (2:35-end)
G|----------------6-------------------2------------------------|
D|-4-4-44-4-44-4-4--6-------------------2h4----------------6-2-|
A|--------------------0-0-00-0-00-0-0-------5-5-55-5-55-5-5----|
E|-------------------------------------------------------------|

 {- - - 1st time - - -}       {- - - 2nd time - - -}
G|--------------------|     G|----------------------|
D|------------------2-|     D|----------------------|
A|----------------4---|     A|------------------4~~~|
E|-2-2-22-2-22-2-2----|     E|-2-2-22-2-22-2-22-----|

************************************

| /  Slide up
| r  Release
| h  Hammer-on
| ~  Vibrato

************************************
Suggest correction
comments
print report bad tab
5 comments total. Showing first comments.
0 reply
Moonster 10 Dec 31, 2010 10:19 AM

Nice! thanks

0 reply
taylorlongboard 52 Dec 12, 2012 03:36 AM

No. The slides are essential to the bassline, and you've left all of them out.

0 reply
Imagine Dragons 116 Apr 03, 2013 07:15 PM

Good Tab works well but I'm sure it's played like this: http://www.youtube.com/watch?v=_I91OV2iIvI

guest
You may want to rate the tab now too:
select rating
Wanna post a correction for this tab? Suggest correction