Oops, an error
Loading. Please wait.

What You Know Tab

version 1
version 1

Whole song

Interactive

355,397 views 567 this week
20 commentsread comments
1 2 3 4 5
accurate
x 25
add to favorites
launch autoscroll
font size
0
reset
how to read this tab
guitar tuner
Tab Pro tools
  • play this tab
  • loop segment
  • change instrument
  • show fretboard
  • metronome
×
Best way to learn
"What You Know"
Autoscroll
slow
fast
+/-
esc
set tempo
stop
Contributor
Difficulty
novice
Song:   What You Know
Artist: Two Door Cinema Club
Album:  Tourist History

Tabber: Lionel Ringenbach
Email:  ucodia@live.com
Date:   April 7th, 2010

I did not transcribed how much times and in which order these parts have to be
played but listen to the song one or two times and you will get it easily.

This is my first tab, so please, be kind !



Guitar 1: standard tuning, capo on 9th fret, light distorsion


[Intro/Chorus]

Listen to the song and strum these chords

     Am7   C

e|----0----0----|
B|----1----1----|
G|----0----0----|
D|----2----2----|
A|----0----3----|
E|----x----x----|


[Verse]

     Am7   G6   Em   F

e|----0----0----0----1----|
B|----1----0----0----1----|
G|----0----0----0----2----|
D|----2----0----2----3----|
A|----0----2----2----3----|
E|----x----3----0----1----|


[Bridge]

This part is a bit too noisy to be completely transcribed but this is how it starts

e|---------------------------|
B|---------------------------|
G|---------------------------|
D|--0--0-0-3-3-0--0-0-3-3-0--|
A|---------------------------|
E|---------------------------|



Guitar 2: standard tuning, no capo, clean


[Intro/Chorus]

e|--------14-----------------14-----------------14----------17-16-16-17-16-----|
B|--14-17----17-14-14--14-17----17----14--14-17----17-14-14----------------14--|
G|---------------------------------16------------------------------------------|
D|-----------------------------------------------------------------------------|
A|-----------------------------------------------------------------------------|
E|-----------------------------------------------------------------------------|

e|--------14-----------------14-----------------14----------17-16-16-17-16-----|
B|--14-17----17-14-14--14-17----17--------14-17----17-14-14----------------14--|
G|---------------------------------16-14---------------------------------------|
D|-----------------------------------------------------------------------------|
A|-----------------------------------------------------------------------------|
E|-----------------------------------------------------------------------------|


[Verse]

Play this part 3 times

e|-----------------------------------|
B|--------/19-19-19\17-17-17-17-17\--|
G|--11-11----------------------------|
D|-----------------------------------|
A|-----------------------------------|
E|-----------------------------------|

And then this one

e|----------------------------|
B|----------------------------|
G|--11-11-11-1111-11-1111-11--|
D|----------------------------|
A|----------------------------|
E|----------------------------|


Chords

Am7 (x 0 2 0 1 0)
C   (x 3 2 0 1 0)
G6  (3 2 0 0 0 0)
Em  (0 2 2 0 0 0)
F   (1 3 3 2 1 1)



************************************

| x  Dead note
| /  Slide up
| \  Slide down

************************************
comments
print report bad tab
20 comments total. Showing first comments.
0 reply
liamdunning wrote on May 3 2010, 10:34 am

It's the 9th fret not 8th for the capo.

0 reply
TheRHCP wrote on May 16 2010, 11:37 am

I was actually playing it on the 9th but I done a mistake when tabbing it.
Thanks for giving notice ;-)

0 reply
robertx995 wrote on August 23 2010, 11:20 am

What do the "\" and "/" mean? I apologise for my amateur tab knowledge :)
By the way great tab, only took me an hour or so to get the hang of it (After I'd walked to the guitar shop to buy a capo! :L)

I want to post or [tab]
guest
You may want to rate the tab now too:
select rating
Please do not post tabs as comments. Select "correction" instead!