Oops, an error
Loading. Please wait.

What You Know Bass Tab

version 2
version 2

Whole song

Interactive

3,701 views 3 this week
no commentswrite comment
1 2 3 4 5
not so good
x 3
add to favorites
launch autoscroll
font size
0
reset
guitar tuner
Tab Pro tools
  • play this tab
  • loop segment
  • change instrument
  • show fretboard
  • metronome
Autoscroll
slow
fast
+/-
esc
set tempo
stop
Contributor
standard tuning
guitar intro

intro and chorus

G|-------------------------2------------7-----------------------------------|
D|----------11---------------4-----------7----------------------------------|
A|---9-99-9----11--0-00-0--------5-55-5----------------4-7-9----------------|
E|----------------------------------------------2-22-2----------------------|

rest first verse


G|--------------------------------------------------------------------------|
D|----11-7-9-7-9----x2-----9-7-9-7-9--x2-----7--7--7---------4--4-----------|
A|--9---------------------7--------------4--4--4--4--4--x2--5-55-5-5--x2----|
E|--------------------------------------------------------------------------|

chorus
verse (play from the first one)

bridge
G|--------------------------------------------------------------------------|
D|-------4444444------------------------------------------------------------|
A|----------------4444444------------4444444---x2--444-777-999--------------|
E|-------------------------2222222------------------------------------------|

chorus

end on 

G|--------------------------------------------------------------------------|
D|--------------------------------------------------------------------------|
A|--4-----------------------------------------------------------------------|
E|--------------------------------------------------------------------------|
comments
We did not receive enough feedback on this tab! Please rate:
print report bad tab
1 2 3 4 5
I want to post or [tab]
guest
You may want to rate the tab now too:
select rating
Please do not post tabs as comments. Select "correction" instead!