Oops, an error
Loading. Please wait.

What You Know Bass Tab

version 3
version 3

Whole song

Interactive

47,571 views 99 this week
4 commentsread comments
1 2 3 4 5
x 53
add to favorites
launch autoscroll
font size
0
reset
guitar tuner
Autoscroll
slow
fast
+/-
esc
set tempo
stop
Help us to improve Ultimate-Guitar.com Take our survey!
×
Author
Difficulty
intermediate
Several people asked for tabs for this song on my bass cover of this on youtube so 
I'm posting tabs up here.
Enjoy!
Standard tuning

Check out my bass cover of this song!

http://www.youtube.com/watch?feature=player_embedded&v=GzWU5eDBF7w

Check out my channel for more covers!

http://www.youtube.com/user/chrisistheazn


[Intro]

   Bass comes in at 0:13

G|--------------------------------------------------------------------------------|
D|----------------------------/11---6------------------------------/7-------------|
A|-9--9---9-9--9---9--9-9---9-----------0--0---0-0--0---0-0--0---0------7h9-------|
E|--------------------------------------------------------------------------------|

G|--------------------------------------------------------------------------------|
D|----------------------------/11---6---------------------------------------------|
A|-5--5---5-5--5---5--5-5---5---------------------------------------4---7---------|
E|--------------------------------------2--2---2-2--2---2-2--2---2----------------|


[Verse 1]

   Bass comes in at 0:41

G|--------------------------------------------------------------------------------|
D|----11-----11--7--9----11-----11--7--9----9-----9--7--9----9-----9--7--9--------|
A|-9------9-----------9------9-----------7-----7----------7-----7-----------------|
E|--------------------------------------------------------------------------------|

G|--------------------------------------------------------------------------------|
D|----7-----7-----4----7-----7-----4----4-------4-------4-------4-----------------|
A|-4-----4-----7----4-----4-----7----5-----5-5-----5-5-----5-5-----5--------------|
E|--------------------------------------------------------------------------------|


[Chorus 1]

G|--------------------------------------------------------------------------------|
D|----------------------------/11---6------------------------------/7-------------|
A|-9--9---9-9--9---9--9-9---9-----------0--0---0-0--0---0-0--0---0------7h9-------|
E|--------------------------------------------------------------------------------|

G|--------------------------------------------------------------------------------|
D|----------------------------/11---6---------------------------------------------|
A|-5--5---5-5--5---5--5-5---5---------------------------------------4---7---------|
E|--------------------------------------2--2---2-2--2---2-2--2---2----------------|

   Play the two lines above twice


[Verse 2]

G|--------------------------------------------------------------------------------|
D|----11-----11--7--9----11-----11--7--9----9-----9--7--9----9-----9--7--9--------|
A|-9------9-----------9------9-----------7-----7----------7-----7-----------------|
E|--------------------------------------------------------------------------------|

G|--------------------------------------------------------------------------------|
D|----7-----7-----4----7-----7-----4----4-------4-------4-------4-----------------|
A|-4-----4-----7----4-----4-----7----5-----5-5-----5-5-----5-5-----5--------------|
E|--------------------------------------------------------------------------------|

   Play the two lines above twice


[Chorus 2]
(Same as Chorus 1)


[Bridge]

Bass comes in at 2:21

G|--------------------------------------------------------------------------------|
D|--------------------------------------------------------------------------------|
A|-9-9-9-9-9-9-9-9----------------------------------------------------------------|
E|-----------------9-9-9-9-9-9-9-9-2-2-2-2-2-2-2-2-9-9-9-9-9-9-9-9----------------|

G|--------------------------------------------------------------------------------|
D|-------------7------------------------------------------------------------------|
A|-9-9-9-9-9-9---9----------------------------------------------------------------|
E|-----------------9-9-9-9-9-9-9-9-2-2-2-2-2-2-2-2-9-9-9-9-9-9-9-9----------------|


[Chorus 3]

G|--------------------------------------------------------------------------------|
D|----------------------------/11---6------------------------------/7-------------|
A|-9--9---9-9--9---9--9-9---9-----------0--0---0-0--0---0-0--0---0------7h9-------|
E|--------------------------------------------------------------------------------|

G|--------------------------------------------------------------------------------|
D|----------------------------/11---6---------------------------------------------|
A|-5--5---5-5--5---5--5-5---5---------------------------------------4---7---------|
E|--------------------------------------2--2---2-2--2---2-2--2---2----------------|

G|--------------------------------------------------------------------------------|
D|----------------------------/11---6------------------------------/7-------------|
A|-9--9---9-9--9---9--9-9---9-----------0--0---0-0--0---0-0--0---0------7h9-------|
E|--------------------------------------------------------------------------------|

G|--------------------------------------------------------------------------------|
D|----------------------------/11---6---------------------------------------------|
A|-5--5---5-5--5---5--5-5---5-------------------------------------------4---------|
E|--------------------------------------2--2---2-2--2---2-2--2---2--2-------------|



************************************

| h  Hammer-on
| /  Slide up

************************************
Suggest correction
comments
print report bad tab
4 comments total. Showing first comments.
+2 reply
ROConnell 20 Sep 24, 2011 05:10 AM

Nice tab! I think this is spot on. :)

+2 reply
Schoonsosa 41 Jan 17, 2014 10:28 AM

seriously how does this have 4 stars?

0 reply
givicencio 340 Jul 13, 2014 04:45 PM

what does the "/11" mean?
slide from air? :S

guest
You may want to rate the tab now too:
select rating
Wanna post a correction for this tab? Suggest correction