Oops, an error
Loading. Please wait.

What You Know Bass Tab

version 4
version 4

Whole song

Interactive

3,065 views 1 this week
no commentswrite comment
1 2 3 4 5
1 last vote to show rating
add to favorites
launch autoscroll
font size
0
reset
guitar tuner
Autoscroll
slow
fast
+/-
esc
set tempo
stop
Help us to improve Ultimate-Guitar.com Take our survey!
×
Author
Difficulty
intermediate
Artist: Two Door Cinema Club

Album: Tourist History

Song: What You Know


Intro

G||----------------------|---------------------|
D||----------------------|------------11---6---|
A||-9--9----9--9--9----9-|-9--9----9-----------|
E||----------------------|---------------------|

G||----------------------|--------------------|
D||----------------------|------------7-------|
A||-0--0----0--0--0----0-|-0--0----0------7-9-|
E||----------------------|--------------------|

G||----------------------|----------------------|
D||----------------------|-----------/11--------|
A||-5--5----5--5--5----5-|-5--5----5-------12---|
E||----------------------|----------------------|

G||----------------------|---------------------|
D||----------------------|---------------------|
A||----------------------|------------4----7---|
E||-2--2----2--2--2----2-|-2--2----2-----------|


Verse

(wait)

G||----------------------|----------------------|
D||----11------11------9-|----11------11------9-|
A||-9------9-------12----|-9------9-------12----|
E||----------------------|----------------------|

G||--------------------|--------------------|
D||----9------9--7--9--|----9------9--7--9--|
A||-7-----7------------|-7-----7------------|
E||--------------------|--------------------|

G||--------------------|--------------------|
D||----7------7--------|----7------7--------|
A||--------------7--9--|--------------7--9--|
E||-9-----9------------|-9-----9------------|

G||--------------------|--------------------|
D||----4---------4-----|----4---------4-----|
A||-5------5--5------5-|-5------5--5------5-|
E||--------------------|--------------------|


Chorus

G||----------------------|---------------------|
D||----------------------|------------11---6---|
A||-9--9----9--9--9----9-|-9--9----9-----------|
E||----------------------|---------------------|

G||----------------------|--------------------|
D||----------------------|------------7-------|
A||-0--0----0--0--0----0-|-0--0----0------7-9-|
E||----------------------|--------------------|

G||----------------------|----------------------|
D||----------------------|-----------/11--------|
A||-5--5----5--5--5----5-|-5--5----5-------12---|
E||----------------------|----------------------|

G||----------------------|---------------------||
D||----------------------|---------------------||  x2
A||----------------------|------------4----7---||
E||-2--2----2--2--2----2-|-2--2----2-----------||


Verse 2


G||----------------------|----------------------|
D||----11------11------9-|----11------11------9-|
A||-9------9-------12----|-9------9-------12----|
E||----------------------|----------------------|

G||--------------------|--------------------|
D||----9------9--7--9--|----9------9--7--9--|
A||-7-----7------------|-7-----7------------|
E||--------------------|--------------------|

G||--------------------|--------------------|
D||----7------7--------|----7------7--------|
A||--------------7--9--|--------------7--9--|
E||-9-----9------------|-9-----9------------|

G||--------------------|--------------------||
D||----4---------4-----|----4---------4-----||  x2
A||-5------5--5------5-|-5------5--5------5-||
E||--------------------|--------------------||


Chorus 2

G||----------------------|---------------------|
D||----------------------|------------11---6---|
A||-9--9----9--9--9----9-|-9--9----9-----------|
E||----------------------|---------------------|

G||----------------------|--------------------|
D||----------------------|------------7-------|
A||-0--0----0--0--0----0-|-0--0----0------7-9-|
E||----------------------|--------------------|

G||----------------------|----------------------|
D||----------------------|-----------/11--------|
A||-5--5----5--5--5----5-|-5--5----5-------12---|
E||----------------------|----------------------|

G||----------------------|---------------------||
D||----------------------|---------------------||  x2
A||----------------------|------------4----7---||
E||-2--2----2--2--2----2-|-2--2----2-----------||

(wait)

Outro 

G||--------------------|--------------------|
D||--------------------|--------------------|
A||-9-9--9-9--9-9--9-9-|--------------------|
E||--------------------|-9-9--9-9--9-9--9-9-|

G||--------------------|--------------------|
D||--------------------|--------------------|
A||--------------------|----------------7-7-|
E||-2-2--2-2--2-2--2-2-|-9-9--9-9--9-9------|


G||--------------------|--------------------|
D||----------------7---|--------------------|
A||-9-9--9-9--9-9----9-|----------------7-7-|
E||--------------------|-9-9--9-9--9-9------|

G||--------------------|--------------------|
D||--------------------|--------------------|
A||--------------------|--------------------|
E||-2-2--2-2--2-2--2-5-|-9-9--9-9--9-9--9-9-|


Chorus 3

G||----------------------|---------------------|
D||----------------------|------------11---6---|
A||-9--9----9--9--9----9-|-9--9----9-----------|
E||----------------------|---------------------|

G||----------------------|--------------------|
D||----------------------|------------7-------|
A||-0--0----0--0--0----0-|-0--0----0------7-9-|
E||----------------------|--------------------|

G||----------------------|----------------------|
D||----------------------|-----------/11--------|
A||-5--5----5--5--5----5-|-5--5----5-------12---|
E||----------------------|----------------------|

G||----------------------|---------------------||
D||----------------------|---------------------||
A||----------------------|------------4----7---||
E||-2--2----2--2--2----2-|-2--2----2-----------||

---

G||----------------------|---------------------|
D||----------------------|------------11---6---|
A||-9--9----9--9--9----9-|-9--9----9-----------|
E||----------------------|---------------------|

G||----------------------|--------------------|
D||----------------------|------------7-------|
A||-0--0----0--0--0----0-|-0--0----0------7-9-|
E||----------------------|--------------------|

G||----------------------|----------------------|
D||----------------------|-----------/11--------|
A||-5--5----5--5--5----5-|-5--5----5-------12---|
E||----------------------|----------------------|

G||----------------------|---------------------||
D||----------------------|---------------------||
A||----------------------|-----------------4---||
E||-2--2----2--2--2----2-|-2--2----2--2--------||


tab by: Pedro Zappa
Suggest correction
Give kudos to tab author, rate the tab!
1 2 3 4 5
comments
print report bad tab
guest
You may want to rate the tab now too:
select rating
Wanna post a correction for this tab? Suggest correction