Oops, an error
Loading. Please wait.
We have an official What You Know tab made by UG professional guitarists. Check out the tab »
×

What You Know tab

version 6
version 6

Whole song

  • As I see it, this is a more accurate version than the others existing.
  • This is a full length tab, and the chorus has a lo... Show more

Interactive

767 views 6 this week
no commentswrite comment
1 2 3 4 5
x 3
add to favorites
×
Save as Personal and add changes to this tab that will be seen only by you. Learn more ›
×
You can save this tab as Personal to edit and correct it or add notes. All changes will be seen only by you. Learn more »
launch autoscroll
font size
0
reset
how to read this tab
guitar tuner
backing track
0:00
0:00
edit
Autoscroll
slow
fast
+/-
esc
set tempo
stop
About this tab version
This is a full length tab, and the chorus has a lower pitch than the other tabs do. Was this info helpful? Yes No
-------------------------------------------------------------------------------
                         What You Know-Two Door Cinema Club 
-------------------------------------------------------------------------------
Tabbed by:Mark Donohue 
E-mail:mwdonohue97@gmail.com

Tuning:Standard 


e|---------------------------------------------------------------------------| Intro 
B|---------------------------------------------------------------------------|
G|---------------------------------------------------------------------------|
D|----------------------------7-7-7-7-7-7-7-7-7-7-6--------------------------|
A|---9-9-9-9-9-9-9-9-9-9-11--------------------------------------------------|
E|---------------------------------------------------------------------------|

e|---------------------------------------------------------------------------| Intro 
B|---------------------------------------------------------------------------|
G|---------------------------------------------------------------------------|
D|----------------------------7-7-7-7-7-7-7-7-7-7-6--------------------------|
A|---9-9-9-9-9-9-9-9-9-9-11--------------------------------------------------|
E|---------------------------------------------------------------------------|

e|-------------------------------------------5-4-4-5-4-----------------------| Intro 
B|-----5-7-5---------5-7-5---------5-7-5-------------------------------------|
G|---6-------6-6---6-------4/6---6-------6-6-----------6---------------------|
D|---------------------------------------------------------------------------|
A|---------------------------------------------------------------------------|
E|---------------------------------------------------------------------------|

e|-------------------------------------------5-4-4-5-4-----------------------| Intro 
B|-----5-7-5---------5-7-5---------5-7-5-------------------------------------|
G|---6-------6-6---6-------4\2---6-------6-6-----------6---------------------|
D|---------------------------------------------------------------------------|
A|---------------------------------------------------------------------------|
E|---------------------------------------------------------------------------|

e|---------------------------------------------------------------------------| Verse 1 
B|---------------------------------------------------------------------------|
G|---------------------------------------------------9-----------------------| In a few weeks, I will get 
D|---11-9--------11-9----------11-9---------11-11-11---11--------------------| time, to realize, it's right
A|--------12-9--------12-9---9------12---12----------------------------------| before my eyes 
E|---------------------------------------------------------------------------|

e|---------------------------------------------------------------------------| Verse 1 
B|---------------------------------------------------------------------------|
G|---------------------------------------------------------------------------| And I can take it, if it's 
D|---11-11-9--------11-11-11-9-----------------------------------------------| what I want to do 
A|-----------12-9--------------12-9-9----------------------------------------|
E|---------------------------------------------------------------------------|

e|---------------------------------------------------------------------------| Verse 1 
B|---------------------------------------------------------------------------|
G|-------------------------------------------------------9-------------------| And I am leaving, and this 
D|-----11-9----------11-9----------11-9---------11-11-11---11----------------| is starting, to feel like 
A|---9------12-9---9------12-9---9------12---12------------------------------| its right before my eyes
E|---------------------------------------------------------------------------|

e|---------------------------------------------------------------------------| Verse 1 
B|---------------------------------------------------------------------------|
G|---------------------------------------------------------------------------| And I can taste it, it's 
D|---11-11-11-9--------11-11-9-----------------------------------------------| my sweet beginning
A|--------------12-9-----------12-9------------------------------------------|
E|---------------------------------------------------------------------------|

e|-------------------------------------------5-4-4-5-4-----------------------| Chorus  
B|-----5-7-5---------5-7-5---------5-7-5-------------------------------------|
G|---6-------6-6---6-------4/6---6-------6-6-----------6---------------------| And I can tell just what 
D|---------------------------------------------------------------------------| you want/You don't want to
A|---------------------------------------------------------------------------| be alone 
E|---------------------------------------------------------------------------|

e|-------------------------------------------5-4-4-5-4-----------------------| Chorus  
B|-----5-7-5---------5-7-5---------5-7-5-------------------------------------|
G|---6-------6-6---6-------4\2---6-------6-6-----------6---------------------| You don't want to be alone 
D|---------------------------------------------------------------------------| 
A|---------------------------------------------------------------------------|
E|---------------------------------------------------------------------------|

e|-------------------------------------------5-4-4-5-4-----------------------| Chorus  
B|-----5-7-5---------5-7-5---------5-7-5-------------------------------------|
G|---6-------6-6---6-------4/6---6-------6-6-----------6---------------------| And I can't say it's what you
D|---------------------------------------------------------------------------| know, but you've known it the
A|---------------------------------------------------------------------------| whole time 
E|---------------------------------------------------------------------------|

e|-------------------------------------------5-4-4-5-4-----------------------| Chorus  
B|-----5-7-5---------5-7-5---------5-7-5-------------------------------------|
G|---6-------6-6---6-------4\2---6-------6-6-----------6---------------------| Yeah, you've known it the 
D|---------------------------------------------------------------------------| whole time 
A|---------------------------------------------------------------------------|
E|---------------------------------------------------------------------------|

e|---------------------------------------------------------------------------| Verse 2 
B|---------------------------------------------------------------------------|
G|---------------------------------------------------9-----------------------| Maybe next year, I'll have no
D|---11-9--------11-9----------11-9---------11-11-11---11--------------------| time, to think about, the 
A|--------12-9--------12-9---9------12---12----------------------------------| questions to address
E|---------------------------------------------------------------------------|

e|---------------------------------------------------------------------------| Verse 2 
B|---------------------------------------------------------------------------|
G|---------------------------------------------------------------------------| Am I the one to, try and 
D|---11-9--------11-11-11-9--------------------------------------------------| stop the fire? 
A|--------12-9--------------12-9---------------------------------------------| 
E|---------------------------------------------------------------------------|

e|---------------------------------------------------------------------------| Verse 2 
B|---------------------------------------------------------------------------|
G|-------------------------------------------------------9-------------------| I wouldn't test you, I'm
D|-----11-9----------11-9----------11-9------11-11-11-11---11----------------| not the best you, could have
A|---9------12-9---9------12-9---9------12-----------------------------------| attained, why try anything?
E|---------------------------------------------------------------------------|

e|---------------------------------------------------------------------------| Verse 2 
B|---------------------------------------------------------------------------|
G|---------------------------------------------------------------------------| I will get there, just 
D|---11-9--------11-11-11-9--------------------------------------------------| remember I know 
A|--------12-9--------------12-9---------------------------------------------|
E|---------------------------------------------------------------------------|

e|-------------------------------------------5-4-4-5-4-----------------------| Chorus  
B|-----5-7-5---------5-7-5---------5-7-5-------------------------------------|
G|---6-------6-6---6-------4/6---6-------6-6-----------6---------------------| And I can tell just what 
D|---------------------------------------------------------------------------| you want/You don't want to
A|---------------------------------------------------------------------------| be alone 
E|---------------------------------------------------------------------------|

e|-------------------------------------------5-4-4-5-4-----------------------| Chorus  
B|-----5-7-5---------5-7-5---------5-7-5-------------------------------------|
G|---6-------6-6---6-------4\2---6-------6-6-----------6---------------------| You don't want to be alone 
D|---------------------------------------------------------------------------| 
A|---------------------------------------------------------------------------|
E|---------------------------------------------------------------------------|

e|-------------------------------------------5-4-4-5-4-----------------------| Chorus  
B|-----5-7-5---------5-7-5---------5-7-5-------------------------------------|
G|---6-------6-6---6-------4/6---6-------6-6-----------6---------------------| And I can't say it's what you
D|---------------------------------------------------------------------------| know, but you've known it the
A|---------------------------------------------------------------------------| whole time 
E|---------------------------------------------------------------------------|

e|-------------------------------------------5-4-4-5-4-----------------------| Chorus  
B|-----5-7-5---------5-7-5---------5-7-5-------------------------------------|
G|---6-------6-6---6-------4\2---6-------6-6-----------6---------------------| Yeah, you've known it the 
D|---------------------------------------------------------------------------| whole time 
A|---------------------------------------------------------------------------|
E|---------------------------------------------------------------------------|

e|---9---------7-----------5-2-----------------------------------------------| Bridge 
B|-----7-7-7-7-----7-5-7-5---------------------------------------------------|
G|---------------------------------------------------------------------------|
D|---------------------------------------------------------------------------|
A|---------------------------------------------------------------------------|
E|---------------------------------------------------------------------------|

e|---------------------------------------------------------------------------| Bridge 
B|---7-7-7-7-7-7-7-7-7-7-7-7-7-5-2-0---7-5-2-0---7-5-2-----------------------| 
G|---------------------------------------------------------------------------| Yeah, yeah, yeah 
D|---------------------------------------------------------------------------|
A|---------------------------------------------------------------------------|
E|---------------------------------------------------------------------------|

e|-------------------------------------------5-4-4-5-4-----------------------| Chorus  
B|-----5-7-5---------5-7-5---------5-7-5-------------------------------------|
G|---6-------6-6---6-------4/6---6-------6-6-----------6---------------------| And I can tell just what 
D|---------------------------------------------------------------------------| you want/You don't want to
A|---------------------------------------------------------------------------| be alone 
E|---------------------------------------------------------------------------|

e|-------------------------------------------5-4-4-5-4-----------------------| Chorus  
B|-----5-7-5---------5-7-5---------5-7-5-------------------------------------|
G|---6-------6-6---6-------4\2---6-------6-6-----------6---------------------| You don't want to be alone 
D|---------------------------------------------------------------------------| 
A|---------------------------------------------------------------------------|
E|---------------------------------------------------------------------------|

e|-------------------------------------------5-4-4-5-4-----------------------| Chorus  
B|-----5-7-5---------5-7-5---------5-7-5-------------------------------------|
G|---6-------6-6---6-------4/6---6-------6-6-----------6---------------------| And I can't say it's what you
D|---------------------------------------------------------------------------| know, but you've known it the
A|---------------------------------------------------------------------------| whole time 
E|---------------------------------------------------------------------------|

e|-------------------------------------------5-4-4-5-4-----------------------| Chorus  
B|-----5-7-5---------5-7-5---------5-7-5-------------------------------------|
G|---6-------6-6---6-------4\2---6-------6-6---------------------------------| Yeah, you've known it the 
D|---------------------------------------------------------------------------| whole time 
A|---------------------------------------------------------------------------|
E|---------------------------------------------------------------------------|

************************************
Key: 

| /   slide up
| \   slide down
| -   No pause 
| --- Pause
 
************************************

            
            
Suggest correction
Creating personal tab
Creating personal tab
You can edit any tab online and save it as your Personal.

You can edit, replace or remove any tab part or add personal notes – all changes will be seen only by you.

Personal tabs can be accessed anytime from any device, even offline.
Learn more »
Give kudos to tab author, rate the tab!
1 2 3 4 5
comments
print report bad tab
guest
You may want to rate the tab now too:
select rating
Wanna post a correction for this tab? Suggest correction