Oops, an error
Loading. Please wait.

Youre Not Stubborn Bass Tab

2,398 views 1 this week
no commentswrite comment
1 2 3 4 5
1 last vote to show rating
add to favorites
launch autoscroll
font size
0
reset
guitar tuner
Autoscroll
slow
fast
+/-
esc
set tempo
stop
Help us to improve Ultimate-Guitar.com Take our survey!
×
Author
Difficulty
intermediate
Artist: Two Door Cinema Club

Album: Tourist History

Song: You're Not Stubborn


Intro

G||--------------------|--------------------|
D||--------------5--4--|--------------4--5--|
A||--------------------|--------------------|
E||-3----3----3--------|-3----3----3--------|

G||--------------5-----|--------------4--5--||
D||--------------------|--------------------||  x2
A||-3----3----3-----3--|-2----2----2--------||
E||--------------------|--------------------||


Verse

G||--------------------|--------------------|
D||--------------------|--------------------|
A||--------------------|--------------------|
E||-3----3----3----3---|-3----3----3----3-2-|

G||--------------------|--------------------|
D||--------------------|------------------5-|
A||-7----7----7----7---|-7----7----7----7---|
E||--------------------|--------------------|

G||--------------------|--------------------|
D||--------------------|--------------------|
A||-5----5----5----5---|-5----5----5----5-7-|
E||--------------------|--------------------|

G||--------------------|--------------------||
D||--------------------|--------------------||
A||-3----3----3----3---|-3----3----3----3-2-||
E||--------------------|--------------------||

---

G||--------------------|--------------------|
D||------------------5-|--------------------|
A||--------------------|--------------------|
E||-3----3----3----3---|-3----3----3----3-2-|

G||------------------9-|--------------------|
D||--------------------|------------------5-|
A||-7----7----7----7---|-7----7----7----7---|
E||--------------------|--------------------|

G||------------------7-|--------------------|
D||--------------------|--------------------|
A||-5----5----5----5---|-5----5----5----5-7-|
E||--------------------|--------------------|

G||------------------5-|--------------------||
D||--------------------|--------------------||
A||-3----3----3----3---|-3----3----3----3-2-||
E||--------------------|--------------------||


Chorus

G||--------------------|--------------------|
D||--------------5--4--|--------------4--5--|
A||--------------------|--------------------|
E||-3----3----3--------|-3----3----3--------|

G||--------------5-----|--------------4--5--||
D||--------------------|--------------------||  x2
A||-3----3----3-----3--|-2----2----2--------||
E||--------------------|--------------------||



Verse 2

G||--------------------|--------------------|
D||--------------------|--------------------|
A||--------------------|--------------------|
E||-3----3----3----3---|-3----3----3----3-2-|

G||--------------------|--------------------|
D||--------------------|------------------5-|
A||-7----7----7----7---|-7----7----7----7---|
E||--------------------|--------------------|

G||--------------------|--------------------|
D||--------------------|--------------------|
A||-5----5----5----5---|-5----5----5----5-7-|
E||--------------------|--------------------|

G||--------------------|--------------------||
D||--------------------|--------------------||  x2
A||-3----3----3----3---|-3----3----3----3-2-||
E||--------------------|--------------------||


Chorus 2

G||--------------------|--------------------|
D||--------------5--4--|--------------4--5--|
A||--------------------|--------------------|
E||-3----3----3--------|-3----3----3--------|

G||--------------5-----|--------------4--5--||
D||--------------------|--------------------||  x4
A||-3----3----3-----3--|-2----2----2--------||
E||--------------------|--------------------||


Outro

(wait)

G||--------------------|--------------------|
D||--------------------|--------------------|
A||--------------------|--------------------|
E||-3------------------|--------------------|

G||--------------------|--------------------|
D||--------------------|--------------------|
A||-3------------------|-6-6--6-6--6-6--6\--|
E||--------------------|--------------------|

---

G||--------------------|--------------------|
D||--------------5--4--|--------------4--5--|
A||--------------------|--------------------|
E||-3----3----3--------|-3----3----3--------|

G||--------------5-----|--------------8-----||
D||--------------------|--------------------||
A||-3----3----3-----3--|-6----6----6-----6--||
E||--------------------|--------------------||


G||--------------------|--------------------|
D||--------------5--4--|--------------4--5--|
A||--------------------|--------------------|
E||-3----3----3--------|-3----3----3--------|

G||--------------5-----|--------------------||
D||--------------------|--------------------||
A||-3----3----3-----3--|-6666-6666-5\---5-2-||
E||--------------------|--------------------||


Chorus 3

G||--------------------|--------------------|
D||---55---55---55---4-|---55---55---55-4-5-|
A||--------------------|--------------------|
E||-3----3----3----3---|-3----3----3--------|

G||---55---55---55-7-5-|---44---44---44-5-4-||
D||--------------------|--------------------||  x4
A||-3----3----3--------|-2----2----2--------||
E||--------------------|--------------------||

G||--------------------|
D||-5------------------|
A||--------------------|
E||--------------------|


tab by: Pedro Zappa
Suggest correction
Give kudos to tab author, rate the tab!
1 2 3 4 5
comments
print report bad tab
guest
You may want to rate the tab now too:
select rating
Wanna post a correction for this tab? Suggest correction