Oops, an error
Loading. Please wait.

Sunday Souvenirs Tab

1,352 views 15 this week
no commentswrite comment
1 2 3 4 5
excellent!
x 3
add to favorites
launch autoscroll
font size
0
reset
how to read this tab
guitar tuner
Tab Pro tools
  • play this tab
  • loop segment
  • change instrument
  • show fretboard
  • metronome
Autoscroll
slow
fast
+/-
esc
set tempo
stop
Contributor
Difficulty
intermediate
Sunday Souvenirs - Two Gallants
http://www.youtube.com/watch?v=LUXB4jzpWNE
____________________________________________________________________________________

Intro:

    G
e ------------3-------------------------------3-----3---------------|
B -(0)--------------0h1---0h1---0-----------------------------------|
G --0-----0---------0-----0-----0-----------------------------------|
D ------0-------0---0h2---0h2---0-------0-------0-------------------|
A ------------------------------------------------------------------|
E --3-------3-----------------------3-------3-------3---------------|

~~~~~~

    G                                               G
e ------------0-----3-0-------0-------------------------3-----3-----3-----3---------|
B ----0---3---------------3-----------0---3---0-------------------------------------|
G --2-----------------------------0h2-------------0-------------------0-------0-----|
D ------0-------0-------0-------0-------0-------0-------0-------0-------0-------0---|
A ----------------------------------------------------------------------------------|
E --3-------3-------3-------3-------3-------3-------3-------3-------3-------3-------|

1: I have seen the summer sun come rest upon your cheek
   And I have seen young Hercules grow feeble and grow weak
2: When all of my leaving is done then I will take my rest
   Count all my possessions when there's no possessions left
3: And all my friends and family and lovers I have known
   You know you mean much more to me than I have ever shown

    C
e ------------------0-------------------------0-----3p0-------0-----|
B --3-----3---3-----------3---3-----3-----3---------------3---------|
G ------------------------------------------------------------------|
D ------2-------2-------2-------2-------2-------2-------2-------2---|
A --3-------3-------3-------3-------3-------3-------3-------3-------|
E ------------------------------------------------------------------|

    G
e --------------------------------------------3-----3-----3---------|
B ------------0-----------0h1---1p0---------------------------------|
G ----------------0-------0-----0-----------------------------0-----|
D ------0-------0-------0-0h2---2p0-----0-------0-------0-------0---|
A ------------------------------------------------------------------|
E --3-------3-------3---------------3-------3-------3-------3-------|

Memories - memories of what I gave away (../memories are all I have today)
Lost love - all the love that's lost along the way (../and gone away)

    Am/E                            D7/A                    D7/F#
e ----------------------------------------2-------2-------2----------|
B --0h1---1-------1-------1-------1---1-------1-------1-----------1--|
G ------------2-------2-------2---------2-------2-------2-----2------|
D ------2-------2-------2-------2---0---------------0-----------0----|
A --0---------------0-----------------------0------------------------|
E ----------0---------------0-------------------------------2--------|

    G
e ------------------------3---------------3-------3-------3---------|
B -----------(0)----0h1-------1---1p0-------------------------------|
G --------0---------0-------0---0-----0-------0-------0-------0-----|
D ------0-------0---0h2-2---------------0-------0-------0-------0---|
A ------------------------------------------------------------------|
E --3-------3-----------------------3-------3-------3-------3-------|

Slow down - let me hold you once before you fade

____________________________________________________________________________________

Tabbed by Adam Alfredsson
comments
We did not receive enough feedback on this tab! Please rate:
print report bad tab
1 2 3 4 5
I want to post or [tab]
guest
You may want to rate the tab now too:
select rating
Please do not post tabs as comments. Select "correction" instead!