Oops, an error
Loading. Please wait.

Personal Life tab

37 views 3 this week
no commentswrite comment
1 2 3 4 5
3 more votes to show rating
add to favorites
×
Save as Personal and add changes to this tab that will be seen only by you. Learn more ›
×
You can save this tab as Personal to edit and correct it or add notes. All changes will be seen only by you. Learn more »
launch autoscroll
font size
0
reset
how to read this tab
guitar tuner
edit
Autoscroll
slow
fast
+/-
esc
set tempo
stop
Author
Difficulty
[Intro]
e|-----------------------------------------------|
B|----------------------------------10~~~~~------|
G|-11~~~~~~-11-10-10-10-10-9--9--9----------8-8--|
D|----------------------------------7~~~~~~-7-7--|
A|-9~~~~~~~-9--8--8--8--8--7--7--7---------------|
E|-----------------------------------------------|(x3)

e|-------------------------------------------------|
B|-------------------------------------------------|
G|-11~~~~~~-11-10-10-10-10-9--9--9--9--9--9--9--9--|
D|-------------------------------------------------|
A|-9~~~~~~~-9--8--8--8--8--7--7--7--7--7--7--7--7--|
E|-------------------------------------------------|

[Verse]
e|-------------------------------------------------|
B|-------------------------------------------------|
G|-------------------------------------------------|
D|--8--8--8--8--8--8--8--8--8--8--8--8--8--8-------|
A|--7--7--7--7--7--7--7--7--7--7--7--7--7--7-12\\--|
E|-------------------------------------------------|

e|-----------------------------------------------------------------------------|
B|-----------------------------------------------------------------------------|
G|--15--15--15--15--15--15--15--15--15--15--15--15--15--15-17b19-19-19-19-19b--|
D|--14--14--14--14--14--14--14--14--14--14--14--14--14--14---------------------|
A|-----------------------------------------------------------------------------|
E|-----------------------------------------------------------------------------|

[Chorus]
e|----------------------------------|
B|----------------------------------|
G|-4--4-4------------------7--7--7--|
D|-4--4-4---3-3-3-3-2-2----7--7--7--|
A|-2--2-2---3-3-3-3-0-0----5--5--5--|
E|-2--2-2-0-1-1-1-1-0-0----5--5--5--|

e|----------------------------------|
B|----------------------------------|
G|-4--4-4------------------7--7--7--|
D|-4--4-4---3-3-3-3-2-2----7--7--7--|
A|-2--2-2---3-3-3-3-0-0----5--5--5--|
E|-2--2-2-0-1-1-1-1-0-0----5--5--5--|

e|---------------------------------|
B|---------------------------------|
G|-4--4-4--------------------------|
D|-4--4-4---3-3-3-3-7-7----6--6-6--|
A|-2--2-2---3-3-3-3-7-7----6--6-6--|
E|-2--2-2-0-1-1-1-1-5-5----4--4-4--|

e|----------------------------------|
B|----------------------------------|
G|-7-7-7-7-7-7-7-7------------------|
D|-7-7-7-7-7-7-7-7-6-6-6-6-6-6-6-6--|
A|-5-5-5-5-5-5-5-5-6-6-6-6-6-6-6-6--|
E|-5-5-5-5-5-5-5-5-4-4-4-4-4-4-4-4--|

e|----------------------------------|
B|----------------------------------|
G|-4--4-4------------------7--7--7--|
D|-4--4-4---3-3-3-3-2-2----7--7--7--|
A|-2--2-2---3-3-3-3-0-0----5--5--5--|
E|-2--2-2-0-1-1-1-1-0-0----5--5--5--|

e|----------------------------------|
B|----------------------------------|
G|-4--4-4------------------7--7--7--|
D|-4--4-4---3-3-3-3-2-2----7--7--7--|
A|-2--2-2---3-3-3-3-0-0----5--5--5--|
E|-2--2-2-0-1-1-1-1-0-0----5--5--5--|

e|---------------------------------|
B|---------------------------------|
G|-4--4-4--------------------------|
D|-4--4-4---3-3-3-3-7-7----6--6-6--|
A|-2--2-2---3-3-3-3-7-7----6--6-6--|
E|-2--2-2-0-1-1-1-1-5-5----4--4-4--|

e|------------------------------------|
B|------------------------------------|
G|-7-7-7-7-7-7-7-7-9-9-9-9-9-9-9-9-9--|
D|-7-7-7-7-7-7-7-7-9-9-9-9-9-9-9-9-9--|
A|-5-5-5-5-5-5-5-5-7-7-7-7-7-7-7-7-7--|
E|-5-5-5-5-5-5-5-5-7-7-7-7-7-7-7-7-7--|

[Verse 2]
e|--------3~~---|
B|-7~~----3~~---|
G|-9~~----0~~---|
D|-X~~----0~~---|
A|-9~~----X~~---|
E|--------3~~---|

e|-------------------------------|
B|-------------------------------|
G|-4--4-4------------------------|
D|-4--4-4--3-3-3-3-2-2-X-6--6-6--|
A|-2--2-2--3-3-3-3-0-0-X-6--6-6--|
E|-2--2-2--1-1-1-1-0-0-X-4--4-4--|

e|-------------------------------|
B|-------------------------------|
G|-4--4-4------------------------|
D|-4--4-4--3-3-3-3-2-2-X-6--6-6--|
A|-2--2-2--3-3-3-3-0-0-X-6--6-6--|
E|-2--2-2--1-1-1-1-0-0-X-4--4-4--|

e|--------3~~---------|
B|-7~~----3~~---10~~--|
G|-9~~----0~~---9~~~--|
D|-7~~----0~~---X~~~--|
A|-9~~----X~~---X~~~--|
E|--------3~~---9~~~--|

e|-----------------------------------|
B|-----------------------------------|
G|-----------------------------------|
D|-7-7-8-8-9-9-9-9--7-7-8-8-9-9-9-9--|
A|-7-7-8-8-9-9-9-9--7-7-8-8-9-9-9-9--|
E|-5-5-6-6-7-7-7-7--5-5-6-6-7-7-7-7--|

[Solo]
(rhythm guitar)
e|---------------------------------|
B|---------------------------------|
G|-4--4-4-7-7-7-7-9-9---10--10-10--|
D|-4--4-4-7-7-7-7-9-9---10--10-10--|
A|-2--2-2-5-5-5-5-7-7---8---8--8---|
E|-2--2-2-5-5-5-5-7-7---8---8--8---|

e|---------------------------------|
B|---------------------------------|
G|-4--4-4-7-7-7-7-9-9---10--10-10--|
D|-4--4-4-7-7-7-7-9-9---10--10-10--|
A|-2--2-2-5-5-5-5-7-7---8---8--8---|
E|-2--2-2-5-5-5-5-7-7---8---8--8---|

e|---------------------------------|
B|---------------------------------|
G|-4--4-4-7-7-7-7-9-9---10--10-10--|
D|-4--4-4-7-7-7-7-9-9---10--10-10--|
A|-2--2-2-5-5-5-5-7-7---8---8--8---|
E|-2--2-2-5-5-5-5-7-7---8---8--8---|

e|----------------------------------|
B|----------------------------------|
G|----------------------------------|
D|-9------9------9-----9-----9------|
A|---8-8----8-8----8-8---8-8---8-8--|
E|----------------------------------|

(the lead guitar track does it four times,
the rhythm guitar track does it five times (as tabbed) in what seems to be the 'just bass' part.)

[lead guitar]
e|------------------------------------|
B|------------------12-10-------------|
G|------7-10-9-7----------9h10p9-7----|
D|-9--9----------9-----------------9--|
A|------------------------------------|
E|------------------------------------|

e|------------------------------------------|
B|------------------12-10--9---9b--9b--9b---|
G|------7-10-9-7-----------10--10b-10b-10b--|
D|-9--9----------9--------------------------|
A|------------------------------------------|
E|------------------------------------------|

e|------------------------------------|
B|------------------12-10-------------|
G|------7-10-9-7----------9h10p9-7----|
D|-9--9----------9-----------------9--|
A|------------------------------------|
E|------------------------------------|

e|----------------------------------|
B|----------------------------------|
G|----------------------------------|
D|-9------9------9-----9------------|
A|---8-8----8-8----8-8---8-8--------|
E|----------------------------------|

[Bridge]
e|-----------------------------------|
B|----0---0----0---0----------0------|
G|----0---0----0---0---0---0--0------|
D|----0---0----0---0---0---0--7------|
A|-----------8~~~8~~/7~~~7-----------|
E|--7~~~7~~~~----------------5--5-6--|

e|------------------------------------|
B|----0---0----0---0-----9-----0------|
G|----0---0----0---0---9---9---0------|
D|----0---0----0---0-9---------7------|
A|-----------8~~~8~~~7----------------|
E|--7~~~7~~~~----------------5---5-6--|

e|------------------------------------|
B|----0---0----0---0-----------0------|
G|----0---0----0---0-9---------0------|
D|----0---0----0---0---9---9---7------|
A|-----------8~~~8~~~7---7------------|
E|--7~~~7~~~~----------------5---5-6--| (x4)

e|------------------1--1-----|
B|------3--2--------2--2--3--|
G|-2h4-------2---1--------0--|
D|---------------------------|
A|---------------------------|
E|---------------------------|

e|-----------2-------------|
B|------3--2----3-3-3-3-3--|
G|-2h4----------2-2-2-2-2--|
D|--------------0-0-0-0-0--|
A|-------------------------|
E|-------------------------|

[Chorus/Outro]
e|----------------------------------|
B|----------------------------------|
G|-4--4-4------------------7--7--7--|
D|-4--4-4---3-3-3-3-2-2----7--7--7--|
A|-2--2-2---3-3-3-3-0-0----5--5--5--|
E|-2--2-2-0-1-1-1-1-0-0----5--5--5--|

e|----------------------------------|
B|----------------------------------|
G|-4--4-4------------------7--7--7--|
D|-4--4-4---3-3-3-3-2-2----7--7--7--|
A|-2--2-2---3-3-3-3-0-0----5--5--5--|
E|-2--2-2-0-1-1-1-1-0-0----5--5--5--|

e|----------------------------------|
B|----------------------------------|
G|-4--4-4------------------7--7--7--|
D|-4--4-4---3-3-3-3-2-2----7--7--7--|
A|-2--2-2---3-3-3-3-0-0----5--5--5--|
E|-2--2-2-0-1-1-1-1-0-0----5--5--5--|

e|-----------------------------------|
B|-----------------------------------|
G|-11-11-11-9-11-11-11-11-9-9-9-9-0--|
D|--------------------------------9--|
A|-----------------------------------|
E|-----------------------------------|

e|----------------------------------|
B|----------------------------------|
G|-4--4-4------------------7--7--7--|
D|-4--4-4---3-3-3-3-2-2----7--7--7--|
A|-2--2-2---3-3-3-3-0-0----5--5--5--|
E|-2--2-2-0-1-1-1-1-0-0----5--5--5--|

e|----------------------------------|
B|----------------------------------|
G|-4--4-4------------------7--7--7--|
D|-4--4-4---3-3-3-3-2-2----7--7--7--|
A|-2--2-2---3-3-3-3-0-0----5--5--5--|
E|-2--2-2-0-1-1-1-1-0-0----5--5--5--|

e|---------------------------------|
B|---------------------------------|
G|-4--4-4--------------------------|
D|-4--4-4---3-3-3-3-7-7----6--6-6--|
A|-2--2-2---3-3-3-3-7-7----6--6-6--|
E|-2--2-2-0-1-1-1-1-5-5----4--4-4--|

e|----------------------------------|
B|----------------------------------|
G|-7-7-7-7-7-7-7-7------------------|
D|-7-7-7-7-7-7-7-7-6-6-6-6-6-6-6-6--|
A|-5-5-5-5-5-5-5-5-6-6-6-6-6-6-6-6--|
E|-5-5-5-5-5-5-5-5-4-4-4-4-4-4-4-4--|

e|----------------------------------|
B|----------------------------------|
G|-4--4-4------------------7--7--7--|
D|-4--4-4---3-3-3-3-2-2----7--7--7--|
A|-2--2-2---3-3-3-3-0-0----5--5--5--|
E|-2--2-2-0-1-1-1-1-0-0----5--5--5--|

e|----------------------------------|
B|----------------------------------|
G|-4--4-4------------------7--7--7--|
D|-4--4-4---3-3-3-3-2-2----7--7--7--|
A|-2--2-2---3-3-3-3-0-0----5--5--5--|
E|-2--2-2-0-1-1-1-1-0-0----5--5--5--|

e|---------------------------------|
B|---------------------------------|
G|-4--4-4--------------------------|
D|-4--4-4---3-3-3-3-7-7----6--6-6--|
A|-2--2-2---3-3-3-3-7-7----6--6-6--|
E|-2--2-2-0-1-1-1-1-5-5----4--4-4--|

e|------------------------------------|
B|------------------------------------|
G|-7-7-7-7-7-7-7-7-9-9-9-9-9-9-9-9-9--|
D|-7-7-7-7-7-7-7-7-9-9-9-9-9-9-9-9-9--|
A|-5-5-5-5-5-5-5-5-7-7-7-7-7-7-7-7-7--|
E|-5-5-5-5-5-5-5-5-7-7-7-7-7-7-7-7-7--|

e|------------------------------------|
B|------------------------------------|
G|------------------------------------|
D|-9----------------------------------|
A|-9----------------------------------|
E|-7----------------------------------|


************************************

| ~  Vibrato
| \  Slide down
| b  Bend
| h  Hammer-on
| p  Pull-off

************************************

            
            
Suggest correction
Creating personal tab
Creating personal tab
You can edit any tab online and save it as your Personal.

You can edit, replace or remove any tab part or add personal notes – all changes will be seen only by you.

Personal tabs can be accessed anytime from any device, even offline.
Learn more »
Give kudos to tab author, rate the tab!
1 2 3 4 5
comments
print report bad tab
guest
You may want to rate the tab now too:
select rating
Wanna post a correction for this tab? Suggest correction