Oops, an error
Loading. Please wait.

Wowee Zowee tab

version 1
version 1

Whole song

2,608 views 1 this week
no commentswrite comment
1 2 3 4 5
1 last vote to show rating
add to favorites
×
Save as Personal and add changes to this tab that will be seen only by you. Learn more ›
×
You can save this tab as Personal to edit and correct it or add notes. All changes will be seen only by you. Learn more »
launch autoscroll
font size
0
reset
how to read this tab
guitar tuner
edit
Autoscroll
slow
fast
+/-
esc
set tempo
stop
-------------------------------------------------------------------------------
                             Wowee Zowee - Two Tongues
-------------------------------------------------------------------------------
Tabbed by: TheTroy
Tuning: Drop Db or drop c#

intro Guitar 1
e|---------------------------------------------------------------------------|
B|---------------------------------------------------------------------------|
G|---------------------------------------------------------------------------|
D|-0-0--9-9--7-7--5-5--5-7-5-4-----------------------------------------------|
A|-0-0--9-9--7-7--5-5--5-7-5-4-----------------------------------------------|
E|-0-0--9-9--7-7--5-5--5-7-5-4-----------------------------------------------|

intro Guitar 2
e|---------------------------------------------------------------------------|
B|------------------------------------------------------------10-------------|
G|-11-11-11-9-9-9-6-7-6-7-6-7-6----11-11-11-9-9-9-6-7-6-7-6-7----7--11-11----|
D|------------------------------7--------------------------------------------|
A|---------------------------------------------------------------------------|
E|---------------------------------------------------------------------------|

e|---------------------------------------------------------------------------|
B|------------------------------------------10-10-10-10-10-10-10-10----------|
G|-11-9-9-9-6-7-6-7-6-7-6----11-11-11-9-9-9----------------------------------|
D|------------------------7--------------------------------------------------|
A|---------------------------------------------------------------------------|
E|---------------------------------------------------------------------------|

verse Bass line
e|---------------------------------------------------------------------------|
B|---------------------------------------------------------------------------|
G|---------------------------------------------------------------------------|
D|------------------------------------------------------------4-4------------|
A|--5-5-5-5-5-5-5-5-5-7-7-9-9-0-0-2-2-2-2-2-2-2-2-2-2-0-0-5-5-----5----------|
E|---------------------------------------------------------------------------|

verse Guitar
e|---------------------------------------------------------------------------|
B|--------------------15~------------------10~-------------------------------|
G|-------14~----14------------11~-------11-----------------------------------|
D|-12-12-----12----12-----9-9-----11-11--------------------------------------|
A|---------------------------------------------------------------------------|
E|---------------------------------------------------------------------------|

Chorus - Same as intro

Verse - same as other

before the next chorus guitar plays this a few times
e|--5-5-5-5------------------------------------------------------------------|
B|--3-3-3-3------------------------------------------------------------------|
G|---------------------------------------------------------------------------|
D|---------------------------------------------------------------------------|
A|---------------------------------------------------------------------------|
E|---------------------------------------------------------------------------|

then chorus

bridge
e|---------------------------------------------------------------------------|
B|---------------------------------------------------------------------------|
G|---------------------------------------------------------------------------|
D|-4-4-4-4-4-4-4-4-4-4-4-4-4-4-4-4-5-5-5-5-5-5-5-5-7-7-7-7-7-7-7-7-----------|
A|-4-4-4-4-4-4-4-4-4-4-4-4-4-4-4-4-5-5-5-5-5-5-5-5-7-7-7-7-7-7-7-7-----------|
E|-4-4-4-4-4-4-4-4-4-4-4-4-4-4-4-4-5-5-5-5-5-5-5-5-7-7-7-7-7-7-7-7-----------|

guitar solo - thanks to xxyouvandalxx for posting this solo
e|------------------------------------------------------------------|
B|------------------------------------------------------------10----|
G|-11-11-11-9-9-9-6-7-6-7-6-7-6----11-11-11-9-9-9-6-7-6-7-6-7----7--|
D|------------------------------7-----------------------------------|
A|------------------------------------------------------------------|
E|------------------------------------------------------------------|

e|---------------------------------------------------------------------------|
B|---------------------------------------------------------------------------|
G|-11-11-11-9-9-9--14-14-14-14-14-14-14-14-14--------------------------------|
D|---------------------------------------------------------------------------|
A|---------------------------------------------------------------------------|
E|---------------------------------------------------------------------------|

e|------------------------|
B|----7--5/7-5--5/7-8p7---|
G|-6h7-7----7--7-------9--|
D|------------------------|
A|------------------------|
E|------------------------|



| /  slide up
| \  slide down
| h  hammer-on
| p  pull-off
| ~  vibrato
| +  harmonic
| x  Mute note
===============================================================================

            
            
Suggest correction
Creating personal tab
Creating personal tab
You can edit any tab online and save it as your Personal.

You can edit, replace or remove any tab part or add personal notes – all changes will be seen only by you.

Personal tabs can be accessed anytime from any device, even offline.
Learn more »
Give kudos to tab author, rate the tab!
1 2 3 4 5
comments
print report bad tab
guest
You may want to rate the tab now too:
select rating
Wanna post a correction for this tab? Suggest correction