Oops, an error
Loading. Please wait.

One Night Only Tab

1,733 views 3 this week
no commentswrite comment
1 2 3 4 5
please rate
add to favorites
launch autoscroll
font size
0
reset
how to read this tab
guitar tuner
Tab Pro tools
  • play this tab
  • loop segment
  • change instrument
  • show fretboard
  • metronome
×
Best way to learn
"One Night Only"
Autoscroll
slow
fast
+/-
esc
set tempo
stop
"One Night Only" (Bland/Bray/Brooks) - TWO WORDS

FIG. 1
e---------------------------------------------------------|
B---------------------------------------------------------|
G--9-9--7-7------9-9--7-7------9-9--7-7------5-5-7-7------|
D--9-9--7-7------9-9--7-7------9-9--7-7------5-5-7-7------|
A--7-7--5-5------7-7--5-5------7-7--5-5------3-3-5-5------|
E---------------------------------------------------------|

FIG. 2
e-----------------------------------------|
B-----------------------------------------|
G-----3--~~~~~----------------3-3--5-5----|
D-----3--~~~~~----------------3-3--5-5----|
A-----1--~~~~~----------------1-1--3-3----|
E-----------------------------------------|

FIG. 3
e-----------------------------------------------------------|
B-10-10-10-10-10--8-8-8-8-8--6-6-6-6-6--5-5-6-6-6-8-8-8-----|
G--9--9--9--9--9--7-7-7-7-7--5-5-5-5-5--4-4-5-5-5-7-7-7-----|
D-----------------------------------------------------------|
A-----------------------------------------------------------|
E-----------------------------------------------------------|

INTRO = FIG. 1

VERSE = FIG. 1
You don't know what I've been through
All of this just to be with you
I now know that you can care for me too
One Night Only I'll be with you

BRIDGE = FIG. 2
I don't need you I just use you
I don't love you I just abuse you

CHORUS = FIG. 3
One Night Only, give it all to ya
One night only, I'm just gonna do ya
Can you take it can you stand the heat
Cause when I'm excited I'm several feet.....

VERSE = FIG. 1
All I want is a one night stand
Prove to you that I'm really a man
Let me touch you with my hand
A night with me must be worth a grand

RPT. BRIDGE = FIG. 2
RPT. CHORUS = FIG. 3

VERSE = FIG. 1
You can treat me like your sexy boy
Play with me like I was your toy
I'll do the things that you really enjoy
You don't have to have me in your employ

RPT. BRIDGE = FIG. 2
RPT. CHORUS = FIG. 3

RPT FIG. 1, end on last D5.
comments
We did not receive enough feedback on this tab! Please rate:
print report bad tab
1 2 3 4 5
I want to post or [tab]
guest
You may want to rate the tab now too:
select rating
Please do not post tabs as comments. Select "correction" instead!