Oops, an error
Loading. Please wait.

Icq Tab

version 1
version 1

Whole song

  • Contains both the rhythm and lead guitars.

Interactive

by Twrp
28 views 9 this week
no commentswrite comment
1 2 3 4 5
3 more votes to show rating
add to favorites
launch autoscroll
font size
0
reset
how to read this tab
guitar tuner
Autoscroll
slow
fast
+/-
esc
set tempo
stop
Help us to improve Ultimate-Guitar.com Take our survey!
×
Author
Difficulty
intermediate
About this tab version
Contains both the rhythm and lead guitars. Was this info helpful? Yes No
Title: ICQ (feat Scratch Bastid)
SubTitle: Tupperware Remix Party
Artist: TWRP
Album: 2nite EP
Tempo = 127




[Intro 0:03]
  GTR 1
E |--5-----5-----5-----x--x--5--5--5--5--------5L------|-(5)----5--5--------------5--5--5--5--------5L------|
B |--5-----5-----5-----x--x--5--5--5--5--------6L------|-(6)----6--6--------------6--6--6--6--------6L------|
G |--5-----5-----5-----x--x--5--5--5--5--------5L------|-(5)----5--5--------------5--5--5--5--------7L------|
D |--7-----7-----7-----x--x--7--7--7--7--------7L------|-(7)----7--7--------------7--7--7--7-----x--7L------|
A |----------------------------------------------------|----------------------------------------------------|
E |----------------------------------------------------|----------------------------------------------------|
  |                                                    |                                                    |
  |                                                    |                                                    |
  GTR 2                                                |                                                    |
E |----------------------------------------------------|----------------------------------------------------|
B |----------------------------------------------------|----------------------------------------------------|
G |----------------------------------------------------|----------------------------------------------------|
D |----------------------------------------------------|----------------------------------------------------|
A |----------------------------------------------------|----------------------------------------------------|
E |----------------------------------------------------|----------------------------------------------------|


  GTR 1
E |-(5)----5--5--5--5--------------5-----------5L------|-(5)----5--5--5--5--------5--5--5--5--7--7--7--7----|
B |-(6)----6--6--6--6--------------6-----------6L------|-(6)----6--6--6--6--------6--6--6--6--8--8--8--8----|
G |-(7)----7--7--7--7--------------7-----------5L------|-(5)----5--5--5--5--------5--5--5--5--7--7--7--7----|
D |-(7)----7--7--7--7--------------7-----------7L------|-(7)----7--7--7--7--------7--7--7--7--9--9--9--9----|
A |----------------------------------------------------|----------------------------------------------------|
E |----------------------------------------------------|----------------------------------------------------|
  |                                                    |                                                    |
  |                                                    |                                                    |
  GTR 2                                                |                                                    |
E |----------------------------------------------------|--------------------------10h12h10------------------|
B |----------------------------------------------------|-----------------------------------13-10------------|
G |----------------------------------------------------|----------------------------------------------------|
D |----------------------------------------------------|----------------------------------------------------|
A |----------------------------------------------------|----------------------------------------------------|
E |----------------------------------------------------|----------------------------------------------------|


  GTR 1
E |--5-----------5-----x--x--5--5--5--5--------5L------|-(5)----5--5--------------5--5--5--5--------5L------|
B |--5-----------5-----x--x--5--5--5--5--------6L------|-(6)----6--6--------------6--6--6--6--------6L------|
G |--5-----------5-----x--x--5--5--5--5--------5L------|-(5)----5--5--------------5--5--5--5--------7L------|
D |--7-----------7-----x--x--7--7--7--7--------7L------|-(7)----7--7--------------7--7--7--7-----x--7L------|
A |----------------------------------------------------|----------------------------------------------------|
E |----------------------------------------------------|----------------------------------------------------|
  |                                                    |                                                    |
  |                                                    |                                                    |
  GTR 2                                                |                                                    |
E |----------------------------------------------------|----------------------------------------------------|
B |----------------------------------------------------|----------------------------------------------------|
G |----------------------------------------------------|----------------------------------------------------|
D |----------------------------------------------------|----------------------------------------------------|
A |----------------------------------------------------|----------------------------------------------------|
E |----------------------------------------------------|----------------------------------------------------|


  GTR 1
E |-(5)----5--5--5--5--------------5-----------5L------|-(5)----5--5--5--5--------5--5--5--5--7--7--7--7----|
B |-(6)----6--6--6--6--------------6-----------6L------|-(6)----6--6--6--6--------6--6--6--6--8--8--8--8----|
G |-(7)----7--7--7--7--------------7-----------5L------|-(5)----5--5--5--5--------5--5--5--5--7--7--7--7----|
D |-(7)----7--7--7--7--------------7-----------7L------|-(7)----7--7--7--7--------7--7--7--7--9--9--9--9----|
A |----------------------------------------------------|----------------------------------------------------|
E |----------------------------------------------------|----------------------------------------------------|
  |                                                    |                                                    |
  |                                                    |                                                    |
  GTR 2                                                |                                                    |
E |----------------------------------------------------|--------------------------10h12h10------------------|
B |----------------------------------------------------|-----------------------------------13-10------------|
G |----------------------------------------------------|----------------------------------------------------|
D |----------------------------------------------------|----------------------------------------------------|
A |----------------------------------------------------|----------------------------------------------------|
E |----------------------------------------------------|----------------------------------------------------|




[Verse 1 0:18]
  GTR 1
E |--5-----5-----5-----x--x--5--5--5--5--------5L------|-(5)----5--5--------------5--5--5--5--------5L------|
B |--5-----5-----5-----x--x--5--5--5--5--------6L------|-(6)----6--6--------------6--6--6--6--------6L------|
G |--5-----5-----5-----x--x--5--5--5--5--------5L------|-(5)----5--5--------------5--5--5--5--------7L------|
D |--7-----7-----7-----x--x--7--7--7--7--------7L------|-(7)----7--7--------------7--7--7--7-----x--7L------|
A |----------------------------------------------------|----------------------------------------------------|
E |----------------------------------------------------|----------------------------------------------------|
  |                                                    |                                                    |
  |                                                    |                                                    |
  GTR 2                                                |                                                    |
E |----------------------------------------------------|----------------------------------------------------|
B |----------------------------------------------------|----------------------------------------------------|
G |----------------------------------------------------|----------------------------------------------------|
D |----------------------------------------------------|----------------------------------------------------|
A |----------------------------------------------------|----------------------------------------------------|
E |----------------------------------------------------|----------------------------------------------------|


  GTR 1
E |-(5)----5--5--5--5--------------5-----------5L------|-(5)----5--5--5--5--------5--5--5--5--7--7--7--7----|
B |-(6)----6--6--6--6--------------6-----------6L------|-(6)----6--6--6--6--------6--6--6--6--8--8--8--8----|
G |-(7)----7--7--7--7--------------7-----------5L------|-(5)----5--5--5--5--------5--5--5--5--7--7--7--7----|
D |-(7)----7--7--7--7--------------7-----------7L------|-(7)----7--7--7--7--------7--7--7--7--9--9--9--9----|
A |----------------------------------------------------|----------------------------------------------------|
E |----------------------------------------------------|----------------------------------------------------|
  |                                                    |                                                    |
  |                                                    |                                                    |
  GTR 2                                                |                                                    |
E |----------------------------------------------------|--------------------------10h12h10------------------|
B |----------------------------------------------------|-----------------------------------13-10------------|
G |----------------------------------------------------|----------------------------------------------------|
D |----------------------------------------------------|----------------------------------------------------|
A |----------------------------------------------------|----------------------------------------------------|
E |----------------------------------------------------|----------------------------------------------------|


  GTR 1
E |--5-----------5-----x--x--5--5--5--5--------5L------|-(5)----5--5--------------5--5--5--5--------5L------|
B |--5-----------5-----x--x--5--5--5--5--------6L------|-(6)----6--6--------------6--6--6--6--------6L------|
G |--5-----------5-----x--x--5--5--5--5--------5L------|-(5)----5--5--------------5--5--5--5--------7L------|
D |--7-----------7-----x--x--7--7--7--7--------7L------|-(7)----7--7--------------7--7--7--7-----x--7L------|
A |----------------------------------------------------|----------------------------------------------------|
E |----------------------------------------------------|----------------------------------------------------|
  |                                                    |                                                    |
  |                                                    |                                                    |
  GTR 2                                                |                                                    |
E |----------------------------------------------------|----------------------------------------------------|
B |----------------------------------------------------|----------------------------------------------------|
G |----------------------------------------------------|----------------------------------------------------|
D |----------------------------------------------------|----------------------------------------------------|
A |----------------------------------------------------|----------------------------------------------------|
E |----------------------------------------------------|----------------------------------------------------|


  GTR 1
E |-(5)----5--5--5--5--------------5-----------5L------|-(5)----5--5--5--5--------5--5--5--5--7--7--7--7----|
B |-(6)----6--6--6--6--------------6-----------6L------|-(6)----6--6--6--6--------6--6--6--6--8--8--8--8----|
G |-(7)----7--7--7--7--------------7-----------5L------|-(5)----5--5--5--5--------5--5--5--5--7--7--7--7----|
D |-(7)----7--7--7--7--------------7-----------7L------|-(7)----7--7--7--7--------7--7--7--7--9--9--9--9----|
A |----------------------------------------------------|----------------------------------------------------|
E |----------------------------------------------------|----------------------------------------------------|
  |                                                    |                                                    |
  |                                                    |                                                    |
  GTR 2                                                |                                                    |
E |----------------------------------------------------|--------------------------10h12h10------------------|
B |----------------------------------------------------|-----------------------------------13-10------------|
G |----------------------------------------------------|----------------------------------------------------|
D |----------------------------------------------------|----------------------------------------------------|
A |----------------------------------------------------|----------------------------------------------------|
E |----------------------------------------------------|----------------------------------------------------|


  GTR 1
E |--5-----5-----5-----x--x--5--5--5--5--------5L------|-(5)----5--5--------------5--5--5--5--------5L------|
B |--5-----5-----5-----x--x--5--5--5--5--------6L------|-(6)----6--6--------------6--6--6--6--------6L------|
G |--5-----5-----5-----x--x--5--5--5--5--------5L------|-(5)----5--5--------------5--5--5--5--------7L------|
D |--7-----7-----7-----x--x--7--7--7--7--------7L------|-(7)----7--7--------------7--7--7--7-----x--7L------|
A |----------------------------------------------------|----------------------------------------------------|
E |----------------------------------------------------|----------------------------------------------------|
  |                                                    |                                                    |
  |                                                    |                                                    |
  GTR 2                                                |                                                    |
E |----------------------------------------------------|----------------------------------------------------|
B |----------------------------------------------------|----------------------------------------------------|
G |----------------------------------------------------|----------------------------------------------------|
D |----------------------------------------------------|----------------------------------------------------|
A |----------------------------------------------------|----------------------------------------------------|
E |----------------------------------------------------|----------------------------------------------------|


  GTR 1
E |-(5)----5--5--5--5--------------5-----------5L------|-(5)----5--5--5--5--------5--5--5--5--7--7--7--7----|
B |-(6)----6--6--6--6--------------6-----------6L------|-(6)----6--6--6--6--------6--6--6--6--8--8--8--8----|
G |-(7)----7--7--7--7--------------7-----------5L------|-(5)----5--5--5--5--------5--5--5--5--7--7--7--7----|
D |-(7)----7--7--7--7--------------7-----------7L------|-(7)----7--7--7--7--------7--7--7--7--9--9--9--9----|
A |----------------------------------------------------|----------------------------------------------------|
E |----------------------------------------------------|----------------------------------------------------|
  |                                                    |                                                    |
  |                                                    |                                                    |
  GTR 2                                                |                                                    |
E |----------------------------------------------------|--------------------------10h12h10------------------|
B |----------------------------------------------------|-----------------------------------13-10------------|
G |----------------------------------------------------|----------------------------------------------------|
D |----------------------------------------------------|----------------------------------------------------|
A |----------------------------------------------------|----------------------------------------------------|
E |----------------------------------------------------|----------------------------------------------------|


  GTR 1
E |--5-----------5-----x--x--5--5--5--5--------5L------|-(5)----5--5--------------5--5--5--5--------5L------|
B |--5-----------5-----x--x--5--5--5--5--------6L------|-(6)----6--6--------------6--6--6--6--------6L------|
G |--5-----------5-----x--x--5--5--5--5--------5L------|-(5)----5--5--------------5--5--5--5--------7L------|
D |--7-----------7-----x--x--7--7--7--7--------7L------|-(7)----7--7--------------7--7--7--7-----x--7L------|
A |----------------------------------------------------|----------------------------------------------------|
E |----------------------------------------------------|----------------------------------------------------|
  |                                                    |                                                    |
  |                                                    |                                                    |
  GTR 2                                                |                                                    |
E |----------------------------------------------------|----------------------------------------------------|
B |----------------------------------------------------|----------------------------------------------------|
G |----------------------------------------------------|----------------------------------------------------|
D |----------------------------------------------------|----------------------------------------------------|
A |----------------------------------------------------|----------------------------------------------------|
E |----------------------------------------------------|----------------------------------------------------|


  GTR 1
E |-(5)----5--5--5--5--------------5-----------5L------|-(5)----5--5--5--5--------5--5--5--5--7--7--7--7----|
B |-(6)----6--6--6--6--------------6-----------6L------|-(6)----6--6--6--6--------6--6--6--6--8--8--8--8----|
G |-(7)----7--7--7--7--------------7-----------5L------|-(5)----5--5--5--5--------5--5--5--5--7--7--7--7----|
D |-(7)----7--7--7--7--------------7-----------7L------|-(7)----7--7--7--7--------7--7--7--7--9--9--9--9----|
A |----------------------------------------------------|----------------------------------------------------|
E |----------------------------------------------------|----------------------------------------------------|
  |                                                    |                                                    |
  |                                                    |                                                    |
  GTR 2                                                |                                                    |
E |----------------------------------------------------|----------------------------------------------------|
B |----------------------------------------------------|----------------------------------------------------|
G |----------------------------------------------------|----------------------------------------------------|
D |----------------------------------------------------|----------------------------------------------------|
A |----------------------------------------------------|----------------------------------------------------|
E |----------------------------------------------------|----------------------------------------------------|


  GTR 1
E |--------5--5--x--5--5--x--5--5--x--x--7--7--7--7----|
B |--------6--6--x--6--6--x--6--6--x--x--8--8--8--8----|
G |--------5--5--x--5--5--x--5--5--x--x--7--7--7--7----|
D |--------7--7--x--7--7--x--7--7--x--x--9--9--9--9----|
A |----------------------------------------------------|
E |----------------------------------------------------|
  |                                                    |
  |                                                    |
  |                                                    |
E |----------------------------------------------------|
B |----------------------------------------------------|
G |----------------------------------------------------|
D |----------------------------------------------------|
A |----------------------------------------------------|
E |----------------------------------------------------|




[A/S/L 0:51]
  GTR 1
E |--------------------------|-------------------------|--------------------------|-------------------------|
B |--------------------------|-------------------------|--------------------------|-------------------------|
G |--------------------------|-------------------------|--------------------------|-------------------------|
D |--------------------------|-------------------------|--------------------------|-------------------------|
A |----------------3---------|-------------------------|----------------3-5---3---|-------------------------|
E |--5----5----3---------5---|--5----5----3-5----------|--5----5----3-------------|--5-5----5--3-5----------|


E |--------------------------|-------------------------|--------------------------|-------------------------|
B |--------------------------|-------------------------|--------------------------|-------------------------|
G |--------------------------|-------------------------|--------------------------|-------------------------|
D |--------------------------|-------------------------|--------------------------|-------------------------|
A |----------------3---------|-------------------------|----------------3-5---3---|-------------------------|
E |--5----5----3---------5---|--5----5----3-5----------|--5----5----3-------------|--5-5----5--3-5----------|


E |--------------------------|-------------------------|--------------------------|-------------------------|
B |--------------------------|-------------------------|--------------------------|-------------------------|
G |--------------------------|-------------------------|--------------------------|-------------------------|
D |--------------------------|-------------------------|--------------------------|-------------------------|
A |----------------3---------|-------------------------|----------------3-5---3---|-------------------------|
E |--5----5----3---------5---|--5----5----3-5----------|--5----5----3-------------|--5-5----5--3-5----------|




[Chorus 1 1:14]
  GTR 1
E |--------------------------|-------------------------|-------------------------|--------------------------|
B |--------------------------|-------------------------|-------------------------|--------------------------|
G |--------------------------|-------------------------|-------------------------|--------------------------|
D |--------------------------|-------------------------|-------------------------|--------------------------|
A |--------------------------|-------------------------|-------------------------|--------------------------|
E |--------------------------|-------------------------|-------------------------|--------------------------|


E |--------------------------|-------------------------|-------------------------|--------------------------|
B |--------------------------|-------------------------|-------------------------|--------------------------|
G |--------------------------|-------------------------|-------------------------|--------------------------|
D |--------------------------|-------------------------|-------------------------|--------------------------|
A |--------------------------|-------------------------|-------------------------|--------------------------|
E |--------------------------|-------------------------|-------------------------|--------------------------|


E |--------------------------|-------------------------|-------------------------|--------------------------|
B |-----------7--------------|-----------6-------------|-----------5L-5----------|--------------------------|
G |--------7--------7-----7--|--------7-------7-----7--|--------5----------------|-----------9L-9-----------|
D |-----7--------------7-----|-----7-------------7-----|-----7-------------------|--------9-----------------|
A |--5-----------------------|--5----------------------|--0----------------------|-----7--------------------|
E |--------------------------|-------------------------|-------------------------|--0-----------------------|


E |--------------------------|-------------------------|-------------------------|--------------------------|
B |-----------7--------------|-----------6-------------|-----------5L-5----------|--------------------------|
G |--------7--------7-----7--|--------7-------7-----7--|--------5----------------|-----------9L-9-----------|
D |-----7--------------7-----|-----7-------------7-----|-----7-------------------|--------9-----------------|
A |--5-----------------------|--5----------------------|--0----------------------|-----7--------------------|
E |--------------------------|-------------------------|-------------------------|--0-----------------------|




[Interlude Solo 1:44]
  GTR 1
E |--5-----5-----5-----x--x--5--5--5--5--------5L------|-(5)----5--5--------------5--5--5--5--------5L------|
B |--5-----5-----5-----x--x--5--5--5--5--------6L------|-(6)----6--6--------------6--6--6--6--------6L------|
G |--5-----5-----5-----x--x--5--5--5--5--------5L------|-(5)----5--5--------------5--5--5--5--------7L------|
D |--7-----7-----7-----x--x--7--7--7--7--------7L------|-(7)----7--7--------------7--7--7--7-----x--7L------|
A |----------------------------------------------------|----------------------------------------------------|
E |----------------------------------------------------|----------------------------------------------------|
  |                                                    |                                                    |
  |                                                    |                                                    |
  GTR 2                                                |                                                    |
E |----------------------------------------------------|--------------------------------------------8-------|
B |----------------------------------------------------|--------------------------10-------8----------------|
G |-----------------------------------------5----------|--------------------------------------9-------------|
D |--------5--6--7--------------5--7--5--7-----7-------|--------5--6--7-------------------------------------|
A |--------------------------7-------------------------|----------------------------------------------------|
E |----------------------------------------------------|----------------------------------------------------|



  GTR 1
E |-(5)----5--5--5--5--------------5-----------5L------|-(5)----5--5--5--5--------5--5--5--5--7--7--7--7----|
B |-(6)----6--6--6--6--------------6-----------6L------|-(6)----6--6--6--6--------6--6--6--6--8--8--8--8----|
G |-(7)----7--7--7--7--------------7-----------5L------|-(5)----5--5--5--5--------5--5--5--5--7--7--7--7----|
D |-(7)----7--7--7--7--------------7-----------7L------|-(7)----7--7--7--7--------7--7--7--7--9--9--9--9----|
A |----------------------------------------------------|----------------------------------------------------|
E |----------------------------------------------------|----------------------------------------------------|
  |                                                    |                                                    |
  |                                                    |                                                    |
  GTR 2                                                |                                                    |
E |----------------------------------------------------|--------------------------10h12h10------------------|
B |----------------------------------------------------|-----------------------------------13-10------------|
G |-----------------------------------------5----------|----------------------------------------------------|
D |--------5--6--7--------------5--7--5--7-----7-------|--------5--6--7-------------------------------------|
A |--------------------------7-------------------------|----------------------------------------------------|
E |----------------------------------------------------|----------------------------------------------------|


  GTR 1
E |--5-----------5-----x--x--5--5--5--5--------5L------|-(5)----5--5--------------5--5--5--5--------5L------|
B |--5-----------5-----x--x--5--5--5--5--------6L------|-(6)----6--6--------------6--6--6--6--------6L------|
G |--5-----------5-----x--x--5--5--5--5--------5L------|-(5)----5--5--------------5--5--5--5--------7L------|
D |--7-----------7-----x--x--7--7--7--7--------7L------|-(7)----7--7--------------7--7--7--7-----x--7L------|
A |----------------------------------------------------|----------------------------------------------------|
E |----------------------------------------------------|----------------------------------------------------|
  |                                                    |                                                    |
  |                                                    |                                                    |
  GTR 2                                                |                                                    |
E |----------------------------------------------------|--------------------------------------------8-------|
B |----------------------------------------------------|--------------------------10-------8----------------|
G |-----------------------------------------5----------|--------------------------------------9-------------|
D |--------5--6--7--------------5--7--5--7-----7-------|--------5--6--7-------------------------------------|
A |--------------------------7-------------------------|----------------------------------------------------|
E |----------------------------------------------------|----------------------------------------------------|


  GTR 1
E |-(5)----5--5--5--5--------------5-----------5L------|-(5)----5--5--5--5--------5--5--5--5--7--7--7--7----|
B |-(6)----6--6--6--6--------------6-----------6L------|-(6)----6--6--6--6--------6--6--6--6--8--8--8--8----|
G |-(7)----7--7--7--7--------------7-----------5L------|-(5)----5--5--5--5--------5--5--5--5--7--7--7--7----|
D |-(7)----7--7--7--7--------------7-----------7L------|-(7)----7--7--7--7--------7--7--7--7--9--9--9--9----|
A |----------------------------------------------------|----------------------------------------------------|
E |----------------------------------------------------|----------------------------------------------------|
  |                                                    |                                                    |
  |                                                    |                                                    |
  GTR 2                                                |                                                    |
E |----------------------------------------------------|---------------------------8-----------8------------|
B |----------------------------------------------------|-----------------------10----10-8---10----10--------|
G |-----------------------------------------5----------|--------7-5------5--9-------------9-----------------|
D |--------5--6--7--------------5--7--5--7-----7-------|--5--7------7-5-------------------------------------|
A |--------------------------7-------------------------|----------------------------------------------------|
E |----------------------------------------------------|----------------------------------------------------|




[Verse 2 2:00]
  GTR 1
E |--5-----5-----5-----x--x--5--5--5--5--------5L------|-(5)----5--5--------------5--5--5--5--------5L------|
B |--5-----5-----5-----x--x--5--5--5--5--------6L------|-(6)----6--6--------------6--6--6--6--------6L------|
G |--5-----5-----5-----x--x--5--5--5--5--------5L------|-(5)----5--5--------------5--5--5--5--------7L------|
D |--7-----7-----7-----x--x--7--7--7--7--------7L------|-(7)----7--7--------------7--7--7--7-----x--7L------|
A |----------------------------------------------------|----------------------------------------------------|
E |----------------------------------------------------|----------------------------------------------------|


E |-(5)----5--5--5--5--------------5-----------5L------|-(5)----5--5--5--5--------5--5--5--5--7--7--7--7----|
B |-(6)----6--6--6--6--------------6-----------6L------|-(6)----6--6--6--6--------6--6--6--6--8--8--8--8----|
G |-(7)----7--7--7--7--------------7-----------5L------|-(5)----5--5--5--5--------5--5--5--5--7--7--7--7----|
D |-(7)----7--7--7--7--------------7-----------7L------|-(7)----7--7--7--7--------7--7--7--7--9--9--9--9----|
A |----------------------------------------------------|----------------------------------------------------|
E |----------------------------------------------------|----------------------------------------------------|


E |--5-----------5-----x--x--5--5--5--5--------5L------|-(5)----5--5--------------5--5--5--5--------5L------|
B |--5-----------5-----x--x--5--5--5--5--------6L------|-(6)----6--6--------------6--6--6--6--------6L------|
G |--5-----------5-----x--x--5--5--5--5--------5L------|-(5)----5--5--------------5--5--5--5--------7L------|
D |--7-----------7-----x--x--7--7--7--7--------7L------|-(7)----7--7--------------7--7--7--7-----x--7L------|
A |----------------------------------------------------|----------------------------------------------------|
E |----------------------------------------------------|----------------------------------------------------|


E |-(5)----5--5--5--5--------------5-----------5L------|-(5)----5--5--5--5--------5--5--5--5--7--7--7--7----|
B |-(6)----6--6--6--6--------------6-----------6L------|-(6)----6--6--6--6--------6--6--6--6--8--8--8--8----|
G |-(7)----7--7--7--7--------------7-----------5L------|-(5)----5--5--5--5--------5--5--5--5--7--7--7--7----|
D |-(7)----7--7--7--7--------------7-----------7L------|-(7)----7--7--7--7--------7--7--7--7--9--9--9--9----|
A |----------------------------------------------------|----------------------------------------------------|
E |----------------------------------------------------|----------------------------------------------------|


E |--5-----5-----5-----x--x--5--5--5--5--------5L------|-(5)----5--5--------------5--5--5--5--------5L------|
B |--5-----5-----5-----x--x--5--5--5--5--------6L------|-(6)----6--6--------------6--6--6--6--------6L------|
G |--5-----5-----5-----x--x--5--5--5--5--------5L------|-(5)----5--5--------------5--5--5--5--------7L------|
D |--7-----7-----7-----x--x--7--7--7--7--------7L------|-(7)----7--7--------------7--7--7--7-----x--7L------|
A |----------------------------------------------------|----------------------------------------------------|
E |----------------------------------------------------|----------------------------------------------------|


E |-(5)----5--5--5--5--------------5-----------5L------|-(5)----5--5--5--5--------5--5--5--5--7--7--7--7----|
B |-(6)----6--6--6--6--------------6-----------6L------|-(6)----6--6--6--6--------6--6--6--6--8--8--8--8----|
G |-(7)----7--7--7--7--------------7-----------5L------|-(5)----5--5--5--5--------5--5--5--5--7--7--7--7----|
D |-(7)----7--7--7--7--------------7-----------7L------|-(7)----7--7--7--7--------7--7--7--7--9--9--9--9----|
A |----------------------------------------------------|----------------------------------------------------|
E |----------------------------------------------------|----------------------------------------------------|


E |--5-----------5-----x--x--5--5--5--5--------5L------|-(5)----5--5--------------5--5--5--5--------5L------|
B |--5-----------5-----x--x--5--5--5--5--------6L------|-(6)----6--6--------------6--6--6--6--------6L------|
G |--5-----------5-----x--x--5--5--5--5--------5L------|-(5)----5--5--------------5--5--5--5--------7L------|
D |--7-----------7-----x--x--7--7--7--7--------7L------|-(7)----7--7--------------7--7--7--7-----x--7L------|
A |----------------------------------------------------|----------------------------------------------------|
E |----------------------------------------------------|----------------------------------------------------|


E |-(5)----5--5--5--5--------------5-----------5L------|-(5)----5--5--5--5--------5--5--5--5--7--7--7--7----|
B |-(6)----6--6--6--6--------------6-----------6L------|-(6)----6--6--6--6--------6--6--6--6--8--8--8--8----|
G |-(7)----7--7--7--7--------------7-----------5L------|-(5)----5--5--5--5--------5--5--5--5--7--7--7--7----|
D |-(7)----7--7--7--7--------------7-----------7L------|-(7)----7--7--7--7--------7--7--7--7--9--9--9--9----|
A |----------------------------------------------------|----------------------------------------------------|
E |----------------------------------------------------|----------------------------------------------------|


E |--------5--5--5--5--------5--5--5--5--7--7--7--7----|--------5--5--5--5--------5--5--5--5--7--7--7--7----|
B |--------6--6--6--6--------6--6--6--6--8--8--8--8----|--------6--6--6--6--------6--6--6--6--8--8--8--8----|
G |--------5--5--5--5--------5--5--5--5--7--7--7--7----|--------5--5--5--5--------5--5--5--5--7--7--7--7----|
D |--------7--7--7--7--------7--7--7--7--9--9--9--9----|--------7--7--7--7--------7--7--7--7--9--9--9--9----|
A |----------------------------------------------------|----------------------------------------------------|
E |----------------------------------------------------|----------------------------------------------------|


E |--------5--5--5--5--------5--5--5--5--7--7--7--7----|
B |--------6--6--6--6--------6--6--6--6--8--8--8--8----|
G |--------5--5--5--5--------5--5--5--5--7--7--7--7----|
D |--------7--7--7--7--------7--7--7--7--9--9--9--9----|
A |----------------------------------------------------|
E |----------------------------------------------------|




[Record Scratch Solo ]
  GTR 1
E |--------------------------|-------------------------|--------------------------|-------------------------|
B |--------------------------|-------------------------|--------------------------|-------------------------|
G |--------------------------|-------------------------|--------------------------|-------------------------|
D |--------------------------|-------------------------|--------------------------|-------------------------|
A |----------------3---------|-------------------------|----------------3-5---3---|-------------------------|
E |--5----5----3---------5---|--5----5----3-5----------|--5----5----3-------------|--5-5----5--3-5----------|


E |--------------------------|-------------------------|--------------------------|-------------------------|
B |--------------------------|-------------------------|--------------------------|-------------------------|
G |--------------------------|-------------------------|--------------------------|-------------------------|
D |--------------------------|-------------------------|--------------------------|-------------------------|
A |----------------3---------|-------------------------|----------------3-5---3---|-------------------------|
E |--5----5----3---------5---|--5----5----3-5----------|--5----5----3-------------|--5-5----5--3-5----------|


E |--------------------------|-------------------------|--------------------------|-------------------------|
B |--------------------------|-------------------------|--------------------------|-------------------------|
G |--------------------------|-------------------------|--------------------------|-------------------------|
D |--------------------------|-------------------------|--------------------------|-------------------------|
A |----------------3---------|-------------------------|----------------3-5---3---|-------------------------|
E |--5----5----3---------5---|--5----5----3-5----------|--5----5----3-------------|--5-5----5--3-5----------|



E |--------------------------|-------------------------|--------------------------|-------------------------|
B |--------------------------|-------------------------|--------------------------|-------------------------|
G |--------------------------|-------------------------|--------------------------|-------------------------|
D |--------------------------|-------------------------|--------------------------|-------------------------|
A |----------------3---------|-------------------------|------------------6---5---|-------------------------|
E |--5----5----3---------5---|--5----5----3-5----------|--5----5----3-------------|--5-5----5--3-5----------|


E |--------------------------|-------------------------|--------------------------|-------------------------|
B |--------------------------|-------------------------|--------------------------|-------------------------|
G |--------------------------|-------------------------|--------------------------|-------------------------|
D |--------------------------|-------------------------|--------------------------|-------------------------|
A |--------------------------|-------------------------|--------------------------|-------------------------|
E |--------------------------|-------------------------|--------------------------|-------------------------|


E |--5------------------5----|-----5---------------5----|-----5--------------5----|-----0-------------------|
B |--7------------------7----|-----6---------------6----|-----5--------------5----|-----0-------------------|
G |--7------------------7----|-----7---------------7----|-----5--------------5.---|-----1-------------------|
D |--7------------------7----|-----7---------------7----|-----7--------------7----|-----2-------------------|
A |--5------------------5----|-----5---------------5----|-----7--------------7----|-----2-------------------|
E |--------------------------|--------------------------|-----5--------------5----|-----0-------------------|


E |--5------------------5----|-----5---------------5----|-----5--------------5----|-----0-------------------|
B |--7------------------7----|-----6---------------6----|-----5--------------5----|-----0-------------------|
G |--7------------------7----|-----7---------------7----|-----5--------------5.---|-----1-------------------|
D |--7------------------7----|-----7---------------7----|-----7--------------7----|-----2-------------------|
A |--5------------------5----|-----5---------------5----|-----7--------------7----|-----2-------------------|
E |--------------------------|--------------------------|-----5--------------5----|-----0-------------------|


E |--5------------------5----|-----5---------------5----|-----5--------------5----|-----0-------------------|
B |--7------------------7----|-----6---------------6----|-----5--------------5----|-----0-------------------|
G |--7------------------7----|-----7---------------7----|-----5--------------5.---|-----1-------------------|
D |--7------------------7----|-----7---------------7----|-----7--------------7----|-----2-------------------|
A |--5------------------5----|-----5---------------5----|-----7--------------7----|-----2-------------------|
E |--------------------------|--------------------------|-----5--------------5----|-----0-------------------|


E |--5------------------5----|-----5---------------5----|-----5--------------5----|-----7-------------------|
B |--7------------------7----|-----6---------------6----|-----5--------------5----|-----9-------------------|
G |--7------------------7----|-----7---------------7----|-----5--------------5.---|-----9-------------------|
D |--7------------------7----|-----7---------------7----|-----7--------------7----|-----9-------------------|
A |--5------------------5----|-----5---------------5----|-----7--------------7----|-----7-------------------|
E |--------------------------|--------------------------|-----5--------------5----|-----0-------------------|


E |-(7L)---------------------|-(7)----------------------|-------------------------|-------------------------|
B |-(9L)---------------------|-(9)----------------------|-------------------------|-------------------------|
G |-(9L)---------------------|-(9)----------------------|-------------------------|-------------------------|
D |-(9L)---------------------|-(9)----------------------|-------------------------|-------------------------|
A |-(7L)---------------------|-(7)----------------------|-------------------------|-------------------------|
E |-(0L)---------------------|-(0)----------------------|--5-5----5--3-5----------|-------------------------|




[Synth Solo 3:59]
  GTR 1
E |--5-----5-----5-----x--x--5--5--5--5--------5L------|-(5)----5--5--------------5--5--5--5--------5L------|
B |--5-----5-----5-----x--x--5--5--5--5--------6L------|-(6)----6--6--------------6--6--6--6--------6L------|
G |--5-----5-----5-----x--x--5--5--5--5--------5L------|-(5)----5--5--------------5--5--5--5--------7L------|
D |--7-----7-----7-----x--x--7--7--7--7--------7L------|-(7)----7--7--------------7--7--7--7-----x--7L------|
A |----------------------------------------------------|----------------------------------------------------|
E |----------------------------------------------------|----------------------------------------------------|
  |                                                    |                                                    |
  |                                                    |                                                    |
  GTR 2                                                |                                                    |
E |----------------------------------------------------|--------------------------------------------8-------|
B |----------------------------------------------------|--------------------------10-------8----------------|
G |-----------------------------------------5----------|--------------------------------------9-------------|
D |--------5--6--7--------------5--7--5--7-----7-------|--------5--6--7-------------------------------------|
A |--------------------------7-------------------------|----------------------------------------------------|
E |----------------------------------------------------|----------------------------------------------------|



  GTR 1
E |-(5)----5--5--5--5--------------5-----------5L------|-(5)----5--5--5--5--------5--5--5--5--7--7--7--7----|
B |-(6)----6--6--6--6--------------6-----------6L------|-(6)----6--6--6--6--------6--6--6--6--8--8--8--8----|
G |-(7)----7--7--7--7--------------7-----------5L------|-(5)----5--5--5--5--------5--5--5--5--7--7--7--7----|
D |-(7)----7--7--7--7--------------7-----------7L------|-(7)----7--7--7--7--------7--7--7--7--9--9--9--9----|
A |----------------------------------------------------|----------------------------------------------------|
E |----------------------------------------------------|----------------------------------------------------|
  |                                                    |                                                    |
  |                                                    |                                                    |
  GTR 2                                                |                                                    |
E |----------------------------------------------------|--------------------------10h12h10------------------|
B |----------------------------------------------------|-----------------------------------13-10------------|
G |-----------------------------------------5----------|----------------------------------------------------|
D |--------5--6--7--------------5--7--5--7-----7-------|--------5--6--7-------------------------------------|
A |--------------------------7-------------------------|----------------------------------------------------|
E |----------------------------------------------------|----------------------------------------------------|


  GTR 1
E |--5-----------5-----x--x--5--5--5--5--------5L------|-(5)----5--5--------------5--5--5--5--------5L------|
B |--5-----------5-----x--x--5--5--5--5--------6L------|-(6)----6--6--------------6--6--6--6--------6L------|
G |--5-----------5-----x--x--5--5--5--5--------5L------|-(5)----5--5--------------5--5--5--5--------7L------|
D |--7-----------7-----x--x--7--7--7--7--------7L------|-(7)----7--7--------------7--7--7--7-----x--7L------|
A |----------------------------------------------------|----------------------------------------------------|
E |----------------------------------------------------|----------------------------------------------------|
  |                                                    |                                                    |
  |                                                    |                                                    |
  GTR 2                                                |                                                    |
E |----------------------------------------------------|--------------------------------------------8-------|
B |----------------------------------------------------|--------------------------10-------8----------------|
G |-----------------------------------------5----------|--------------------------------------9-------------|
D |--------5--6--7--------------5--7--5--7-----7-------|--------5--6--7-------------------------------------|
A |--------------------------7-------------------------|----------------------------------------------------|
E |----------------------------------------------------|----------------------------------------------------|


  GTR 1
E |-(5)----5--5--5--5--------------5-----------5L------|-(5)----5--5--5--5--------5--5--5--5--7--7--7--7----|
B |-(6)----6--6--6--6--------------6-----------6L------|-(6)----6--6--6--6--------6--6--6--6--8--8--8--8----|
G |-(7)----7--7--7--7--------------7-----------5L------|-(5)----5--5--5--5--------5--5--5--5--7--7--7--7----|
D |-(7)----7--7--7--7--------------7-----------7L------|-(7)----7--7--7--7--------7--7--7--7--9--9--9--9----|
A |----------------------------------------------------|----------------------------------------------------|
E |----------------------------------------------------|----------------------------------------------------|
  |                                                    |                                                    |
  |                                                    |                                                    |
  GTR 2                                                |                                                    |
E |----------------------------------------------------|--------------------------10h12h10------------------|
B |----------------------------------------------------|-----------------------------------13-10------------|
G |-----------------------------------------5----------|----------------------------------------------------|
D |--------5--6--7--------------5--7--5--7-----7-------|--------5--6--7-------------------------------------|
A |--------------------------7-------------------------|----------------------------------------------------|
E |----------------------------------------------------|----------------------------------------------------|




[Verse 3 4:14]
  GTR 1
E |-----5-----5-----x--x--5--5--5--5--------5----------|--5-----5--5--------------5--5--5--5--------5-------|
B |-----5-----5-----x--x--5--5--5--5--------6----------|--6-----6--6--------------6--6--6--6--------6-------|
G |-----5-----5-----x--x--5--5--5--5--------5----------|--5-----5--5--------------5--5--5--5--------7-------|
D |-----7-----7-----x--x--7--7--7--7--------7----------|--7-----7--7--------------7--7--7--7-----x--7-------|
A |----------------------------------------------------|----------------------------------------------------|
E |----------------------------------------------------|----------------------------------------------------|
  |                                                    |                                                    |
  |                                                    |                                                    |
  GTR 2                                                |                                                    |
E |----------------------------------------------------|----------------------------------------------------|
B |----------------------------------------------------|----------------------------------------------------|
G |----------------------------------------------------|----------------------------------------------------|
D |----------------------------------------------------|----------------------------------------------------|
A |----------------------------------------------------|----------------------------------------------------|
E |----------------------------------------------------|----------------------------------------------------|


  GTR 1
E |--5-----5--5--5--5--------------5-----------5L------|-(5)----5--5--5--5--------5--5--5--5--7--7--7--7----|
B |--6-----6--6--6--6--------------6-----------6L------|-(6)----6--6--6--6--------6--6--6--6--8--8--8--8----|
G |--7-----7--7--7--7--------------7-----------5L------|-(5)----5--5--5--5--------5--5--5--5--7--7--7--7----|
D |--7-----7--7--7--7--------------7-----------7L------|-(7)----7--7--7--7--------7--7--7--7--9--9--9--9----|
A |----------------------------------------------------|----------------------------------------------------|
E |----------------------------------------------------|----------------------------------------------------|
  |                                                    |                                                    |
  |                                                    |                                                    |
  GTR 2                                                |                                                    |
E |----------------------------------------------------|--------------------------10h12h10------------------|
B |----------------------------------------------------|-----------------------------------13-10------------|
G |----------------------------------------------------|----------------------------------------------------|
D |----------------------------------------------------|----------------------------------------------------|
A |----------------------------------------------------|----------------------------------------------------|
E |----------------------------------------------------|----------------------------------------------------|


  GTR 1
E |--5-----------5-----x--x--5--5--5--5--------5L------|-(5)----5--5--------------5--5--5--5--------5-------|
B |--5-----------5-----x--x--5--5--5--5--------6L------|-(6)----6--6--------------6--6--6--6--------6-------|
G |--5-----------5-----x--x--5--5--5--5--------5L------|-(5)----5--5--------------5--5--5--5--------7-------|
D |--7-----------7-----x--x--7--7--7--7--------7L------|-(7)----7--7--------------7--7--7--7-----x--7-------|
A |----------------------------------------------------|----------------------------------------------------|
E |----------------------------------------------------|----------------------------------------------------|
  |                                                    |                                                    |
  |                                                    |                                                    |
  GTR 2                                                |                                                    |
E |----------------------------------------------------|----------------------------------------------------|
B |----------------------------------------------------|----------------------------------------------------|
G |----------------------------------------------------|----------------------------------------------------|
D |----------------------------------------------------|----------------------------------------------------|
A |----------------------------------------------------|----------------------------------------------------|
E |----------------------------------------------------|----------------------------------------------------|


  GTR 1
E |--5-----5--5--5--5--------------5-----------5L------|--5-----5--5--5--5--------5--5--5--5--7--7--7--7----|
B |--6-----6--6--6--6--------------6-----------6L------|--6-----6--6--6--6--------6--6--6--6--8--8--8--8----|
G |--7-----7--7--7--7--------------7-----------5L------|--5-----5--5--5--5--------5--5--5--5--7--7--7--7----|
D |--7-----7--7--7--7--------------7-----------7L------|--7-----7--7--7--7--------7--7--7--7--9--9--9--9----|
A |----------------------------------------------------|----------------------------------------------------|
E |----------------------------------------------------|----------------------------------------------------|
  |                                                    |                                                    |
  |                                                    |                                                    |
  GTR 2                                                |                                                    |
E |----------------------------------------------------|--------------------------10h12h10------------------|
B |----------------------------------------------------|-----------------------------------13-10------------|
G |----------------------------------------------------|----------------------------------------------------|
D |----------------------------------------------------|----------------------------------------------------|
A |----------------------------------------------------|----------------------------------------------------|
E |----------------------------------------------------|----------------------------------------------------|


  GTR 1
E |-----5-----5-----x--x--5--5--5--5--------5----------|-(5)----5--5--------------5--5--5--5--------5-------|
B |-----5-----5-----x--x--5--5--5--5--------6----------|-(6)----6--6--------------6--6--6--6--------6-------|
G |-----5-----5-----x--x--5--5--5--5--------5----------|-(5)----5--5--------------5--5--5--5--------7-------|
D |-----7-----7-----x--x--7--7--7--7--------7----------|-(7)----7--7--------------7--7--7--7-----x--7-------|
A |----------------------------------------------------|----------------------------------------------------|
E |----------------------------------------------------|----------------------------------------------------|
  |                                                    |                                                    |
  |                                                    |                                                    |
  GTR 2                                                |                                                    |
E |----------------------------------------------------|----------------------------------------------------|
B |----------------------------------------------------|----------------------------------------------------|
G |----------------------------------------------------|----------------------------------------------------|
D |----------------------------------------------------|----------------------------------------------------|
A |----------------------------------------------------|----------------------------------------------------|
E |----------------------------------------------------|----------------------------------------------------|


  GTR 1
E |--5-----5--5--5--5--------------5-----------5L------|-(5)----5--5--5--5--------5--5--5--5--7--7--7--7----|
B |--6-----6--6--6--6--------------6-----------6L------|-(6)----6--6--6--6--------6--6--6--6--8--8--8--8----|
G |--7-----7--7--7--7--------------7-----------5L------|-(5)----5--5--5--5--------5--5--5--5--7--7--7--7----|
D |--7-----7--7--7--7--------------7-----------7L------|-(7)----7--7--7--7--------7--7--7--7--9--9--9--9----|
A |----------------------------------------------------|----------------------------------------------------|
E |----------------------------------------------------|----------------------------------------------------|
  |                                                    |                                                    |
  |                                                    |                                                    |
  GTR 2                                                |                                                    |
E |----------------------------------------------------|--------------------------10h12h10------------------|
B |----------------------------------------------------|-----------------------------------13-10------------|
G |----------------------------------------------------|----------------------------------------------------|
D |----------------------------------------------------|----------------------------------------------------|
A |----------------------------------------------------|----------------------------------------------------|
E |----------------------------------------------------|----------------------------------------------------|


  GTR 1
E |--5-----------5-----x--x--5--5--5--5--------5L------|-(5)----5--5--------------5--5--5--5--------5-------|
B |--5-----------5-----x--x--5--5--5--5--------6L------|-(6)----6--6--------------6--6--6--6--------6-------|
G |--5-----------5-----x--x--5--5--5--5--------5L------|-(5)----5--5--------------5--5--5--5--------7-------|
D |--7-----------7-----x--x--7--7--7--7--------7L------|-(7)----7--7--------------7--7--7--7-----x--7-------|
A |----------------------------------------------------|----------------------------------------------------|
E |----------------------------------------------------|----------------------------------------------------|
  |                                                    |                                                    |
  |                                                    |                                                    |
  GTR 2                                                |                                                    |
E |----------------------------------------------------|----------------------------------------------------|
B |----------------------------------------------------|----------------------------------------------------|
G |----------------------------------------------------|----------------------------------------------------|
D |----------------------------------------------------|----------------------------------------------------|
A |----------------------------------------------------|----------------------------------------------------|
E |----------------------------------------------------|----------------------------------------------------|


  GTR 1
E |--5-----5--5--5--5--------------5-----------5L------|-(5)----5--5--5--5--------5--5--5--5--7--7--7--7----|
B |--6-----6--6--6--6--------------6-----------6L------|-(6)----6--6--6--6--------6--6--6--6--8--8--8--8----|
G |--7-----7--7--7--7--------------7-----------5L------|-(5)----5--5--5--5--------5--5--5--5--7--7--7--7----|
D |--7-----7--7--7--7--------------7-----------7L------|-(7)----7--7--7--7--------7--7--7--7--9--9--9--9----|
A |----------------------------------------------------|----------------------------------------------------|
E |----------------------------------------------------|----------------------------------------------------|
  |                                                    |                                                    |
  |                                                    |                                                    |
  GTR 2                                                |                                                    |
E |----------------------------------------------------|----------------------------------------------------|
B |----------------------------------------------------|----------------------------------------------------|
G |----------------------------------------------------|----------------------------------------------------|
D |----------------------------------------------------|----------------------------------------------------|
A |----------------------------------------------------|--------------------------------------------0--2----|
E |----------------------------------------------------|----------------------------------------------------|




[Outro 4:46]
  GTR 1
E |--------------------------|--------------------------|-------------------------|-------------------------|
B |--------------------------|--------------------------|-------------------------|-------------------------|
G |--------------------------|--------------------------|-------------------------|-------------------------|
D |--------------------------|--------------------------|-------------------------|-------------------------|
A |--------------------------|--------------------------|-------------------------|-------------------------|
E |--------------------------|--------------------------|-------------------------|-------------------------|
  |                          |                          |                         |                         |
  |                          |                          |                         |                         |
  GTR 2                      |                          |                         |                         |
E |--------------------------|--------------------------|-------------------------|-------------------------|
B |--------------------------|--------------------------|-------------------------|-------------------------|
G |--------------------------|--------------------------|-------------------------|-------------------------|
D |--------------------------|--------------------------|---------0-------0--2----|--3-2-0------------------|
A |--3-2-0-----0---------0-2-|--3-2-0---------------0-2-|--3-2-0------------------|-----------------2---3---|
E |--------3-----------------|--------3--1L-------------|-------------------------|---------3---------------|


  GTR 1
E |--------------------------|--------------------------|-------------------------|-------------------------|
B |--------------------------|--------------------------|-------------------------|-------------------------|
G |--------------------------|--------------------------|-------------------------|-------------------------|
D |--------------------------|--------------------------|-------------------------|-----------------------0-|
A |--------------------------|--------------------------|-------------------------|---------------------3---|
E |--------------------------|--------------------------|-------------------------|-------------------------|
  |                          |                          |                         |                         |
  |                          |                          |                         |                         |
  GTR 2                      |                          |                         |                         |
E |--------------------------|--------------------------|-------------------------|-------------------------|
B |--------------------------|--------------------------|-------------------------|-------------------------|
G |--------------------------|--------------------------|-------------------------|---------0---------------|
D |--------------------------|--------------------------|---------0-------0--2----|--3-2-0--------------0-2-|
A |--0L------------------0-2-|--3-2-0---------------0-2-|--3-2-0------------------|-------------------------|
E |--------------------------|--------3--1L-------------|-------------------------|-------------------------|


  GTR 1
E |--------------------------|--------------------------|-------------------------|-------------------------|
B |--------------------------|--------------------------|-------------------------|-------------------------|
G |--------------------------|--------------------------|--------------------0----|--2-0----0---------------|
D |--2-0-------------------0-|--2-0-------------------0-|--2-0----3-------3-------|------3----------3---2---|
A |------3-2---3---------3---|------3-2--0----------3---|------3------------------|-------------------------|
E |--------------------------|--------------------------|-------------------------|-------------------------|
  |                          |                          |                         |                         |
  |                          |                          |                         |                         |
  GTR 2                      |                          |                         |                         |
E |--------------------------|--------------------------|-------------------------|-------------------------|
B |--------------------------|--------------------------|-------------------------|-------------------------|
G |--------------------------|--------------------------|-------------------------|-------------------------|
D |--------------------------|--------------------------|---------0-------0--2----|--3-2-0------------------|
A |--3-2-0-----0---------0-2-|--3-2-0---------------0-2-|--3-2-0------------------|-----------------2---3---|
E |--------3-----------------|--------3--1L-------------|-------------------------|---------3---------------|


  GTR 1
E |--------------------------|--------------------------|-------------------------|-------------------------|
B |--------------------------|--------------------------|-------------------------|-------------------------|
G |--------------------------|--------------------------|--------------------0----|--2-0----0-------------0-|
D |------------------------0-|--2-0-------------------0-|--2-0----3-------3-------|------3---------------3--|
A |--3-------------------3---|------3-2--0----------3---|------3------------------|-------------------------|
E |--------------------------|--------------------------|-------------------------|-------------------------|
  |                          |                          |                         |                         |
  |                          |                          |                         |                         |
  GTR 2                      |                          |                         |                         |
E |--------------------------|--------------------------|-------------------------|-------------------------|
B |--------------------------|--------------------------|-------------------------|-------------------------|
G |--------------------------|--------------------------|-------------------------|---------0---------------|
D |--------------------------|--------------------------|---------0-------0--2----|--3-2-0--------------0-2-|
A |--0L------------------0-2-|--3-2-0---------------0-2-|--3-2-0------------------|-------------------------|
E |--------------------------|--------3--1L-------------|-------------------------|-------------------------|


  GTR 1
E |--------------------------|--------------------------|-------------------------|-------------------------|
B |--------------------------|--------------------------|-------------------------|-------------------------|
G |--------------------------|--------------------------|-------------------------|-------------------------|
D |--2-0-------------------3-|--2-0-------------------3-|--2-0------------------3-|--2-0--------------------|
A |------3-2-------------0---|------3-2-------------0---|------3-2------------0---|------3-2----------------|
E |--------------------------|--------------------------|-------------------------|-------------------------|
  |                          |                          |                         |                         |
  |                          |                          |                         |                         |
  GTR 2                      |                          |                         |                         |
E |--------------------------|--------------------------|-------------------------|-------------------------|
B |--------------------------|--------------------------|-------------------------|-------------------------|
G |--------------------------|--------------------------|-------------------------|-------------------------|
D |--------------------------|--------------------------|-------------------------|-------------------------|
A |--3-2-0---------------0-2-|--3-2-0---------------0-2-|--3-2-0--------------0-2-|--3-2-0------------------|
E |--------3-----------------|--------3-----------------|--------3----------------|--------3----------------|



E |----------------------------------------------------|----------------------------------------------------|
B |----------------------------------------------------|----------------------------------------------------|
G |--7--5--------5-------------------------------------|----------------------------------------------------|
D |--------7--5-----7--5-----7--5--------5-------------|--------------------------------------------5L------|
A |-----------------------7--------7--5-----7--5-------|--7--5--------------3--5--6--------7----------------|
E |-----------------------------------------------8----|--------8--5--3--5----------------------------------|


E |--------------------------------------5--5--5--5----|--------5--5--5--5----------------------------------||
B |--------------------------------------5--5--5--5----|--------5--5--5--5----------------------------------||
G |--------------5-----5-----------------5--5--5--5----|--------5--5--5--5----------------------------------||
D |--5--7-----------------7--------------5--5--5--5----|--------5--5--5--5----------------------------------||
A |--------------------------------------7--7--7--7----|--------7--7--7--7----------------------------------||
E |--------------------------------------5--5--5--5----|--------5--5--5--5----------------------------------||


Legend
L - tied note
x - dead note
h - hammer on/pull off
b - bend
s - slide
~ - vibrato
g - ghost note



Suggest correction
Give kudos to tab author, rate the tab!
1 2 3 4 5
comments
print report bad tab
guest
You may want to rate the tab now too:
select rating
Wanna post a correction for this tab? Suggest correction