Oops, an error
Loading. Please wait.

Interstellar Strut bass

version 1
version 1

Whole song

Interactive

by Twrp
418 views 3 this week
no commentswrite comment
1 2 3 4 5
3 more votes to show rating
add to favorites
×
Save as Personal and add changes to this tab that will be seen only by you. Learn more ›
×
You can save this tab as Personal to edit and correct it or add notes. All changes will be seen only by you. Learn more »
launch autoscroll
font size
0
reset
guitar tuner
edit
Autoscroll
slow
fast
+/-
esc
set tempo
stop
Author
Title: Interstellar Strut
SubTitle: Tupperware Remix Party
Artist: TWRP
Album: The Device EP
Tempo = 120
Electric Bass

Legend
L - tied note
x - dead note
h - hammer on/pull off
b - bend
s - slide
~ - vibrato
g - ghost note
> - accentuated note
t - trill
M - palm mute
. - staccato
P - popping (bass)
S - slapping (bass)
+ - tapping
W - wide vibrato
< - fade in
w - whammy bar
= - tremolo picking
v - brush up
^ - brush down
V - pick stroke up
n - pick stroke down

 Intro (0:04)

G|----------------------------------------------------|----------------------------------------------------|
D|----------------------------------------------------|----------------------------------------------------|
A|----------------------------------------------------|----------------------------------------------------|
E|----------------------------------------------------|--------------------------------------------2L------|

G|----------------------------------------------------|----------------------------------------------------|
D|----------------------------------------------------|----------------------------------------------------|
A|----------------------------------------------------|----------------------------------------------------|
E|-(2L)-----------------------------------------------|-(2L)-----------------------------------------------|


G|----------------------------------------------------|----------------------------------------------------|
D|----------------------------------------------------|----------------------------------------------------|
A|----------------------------------------------------|----------------------------------------------------|
E|-(2L)-----------------------------------------------|-(2L)--------------------(2)-----------------2L-----|


G|----------------------------------------------------|----------------------------------------------------|
D|----------------------------------------------------|--------------------4L---(4)------------------------|
A|----------------------------------------------------|--0-----2-----4-------------------------------------|
E|-(2L)--------------------(2)----------2-----2-------|----------------------------------------------------|


G|----------------------------------------------------|----------------------------------------------------|
D|-----4--2--2--4--4-----------2----------------------|----------------------------------------------------|
A|--------------------------4-----4--2--0-----2-------|--4-----2-----0-----2-------------------------------|
E|----------------------------------------------------|--------------------------2-------------------------|


Verse 1 (0:24)

G|----------------------------------------------------|----------------------------------------------------|
D|----------------------------------------------------|----------------------------------------------------|
A|--------------------------4-----4-------------------|--------2-----2-------------------------------------|
E|--2-----2-------------------------------------------|--------------------0-----------0-----1-----2-------|


G|----------------------------------------------------|----------------------------------------------------|
D|--------------------------2-------------------------|--------------2-------------------------------------|
A|-----------------------2----------------------------|-----------2----------------------------------------|
E|--2--------2--5--2--5-----------2--------------2----|--5--2--5-----------2-----------2-------------------|


G|----------------------------------------------------|----------------------------------------------------|
D|----------------------------------------------------|----------------------------------------------------|
A|--------------------------4-----4-------------------|--------2-----2-------------------------------------|
E|--2-----2-------------------------------------------|--------------------0-----------0-----1-----2-------|

G|----------------------------------------------------|----------------------------------------------------|
D|--------------------------2-------------------------|--------------2-------------------------------------|
A|-----------------------2----------------------------|-----------2----------------------------------------|
E|--2--------2--5--2--5-----------2--------------2----|--5--2--5-----------2-----------2-----------2-------|


G|----------------------------------------------------|
D|--------------------------2-------------------------|
A|-----------------------2----------------------------|
E|--2--------2--5--2--5-----------2-------------------|


Chorus 1 (0:42)

G|----------------------------------------------------|----------------------------------------------------|
D|--------------------------2-------------------------|--------------2-------------------------------------|
A|-----------------------2----------------------------|-----------2----------------------------------------|
E|--2--------2--5--2--5-----------2--------------2----|--5--2--5-----------2-----------2-----------2-------|


G|----------------------------------------------------|----------------------------------------------------|
D|--------------------------2-------------------------|--------------2-------------------------------------|
A|-----------------------2----------------------------|-----------2----------------------------------------|
E|-----------2--5--2--5-----------2--------------2----|--5--2--5-----------2-----------2-----------2-------|


G|----------------------------------------------------|----------------------------------------------------|
D|--------------------------2-------------------------|--------------2-------------------------------------|
A|-----------------------2----------------------------|-----------2----------------------------------------|
E|--2--------2--5--2--5-----------2--------------2----|--5--2--5-----------2-----------2-----------2-------|


G|----------------------------------------------------|----------------------------------------------------|
D|--------------------------2-------------------------|--------------2-------------------------------------|
A|-----------------------2----------------------------|-----------2----------------------------------------|
E|-----------2--5--2--5-----------2--------------2----|--5--2--5-----------2-----------2-----------2-------|


Verse 2 (0:58)

G|----------------------------------------------------|----------------------------------------------------|
D|----------------------------------------------------|----------------------------------------------------|
A|--------------------------4-----4-------------------|--------2-----2-------------------------------------|
E|--2-----2-------------------------------------------|--------------------0-----------0-----1-----2-------|


G|----------------------------------------------------|----------------------------------------------------|
D|----------------------------------------------------|----------------------------------------------------|
A|--------------------------4-----4-----------2-------|--2-------------------------------------------------|
E|--------2-----2-------------------------------------|--------------0-----0L---(0)------------------------|


G|----------------------------------------------------|----------------------------------------------------|
D|----------------------------------------------------|----------------------------------------------------|
A|--------------------------4-----4-------------------|--------2-----2-------------------------------------|
E|--2-----2-------------------------------------------|--------------------0-----------0-----1-----2-------|


G|----------------------------------------------------|----------------------------------------------------|
D|----------------------------------------------------|----------------------------------------------------|
A|--------------------------4-----4-----------2-------|--2-------------------------------------------------|
E|--------2-----2-------------------------------------|--------------0-----0L---(0)------------------------|


G|----------------------------------------------------|----------------------------------------------------|
D|----------------------------------------------------|----------------------------------------------------|
A|--------------------------4-----4-------------------|--------2-----2-------------------------------------|
E|--2-----2-------------------------------------------|--------------------0-----------0-----1-----2-------|


G|----------------------------------------------------|----------------------------------------------------|
D|----------------------------------------------------|----------------------------------------------------|
A|--------------------------4-----4-----------2-------|--2-------------------------------------------------|
E|--------2-----2-------------------------------------|--------------0-----0L---(0)------------------------|

 |==1==e==+==a==2==e==+==a==3==e==+==a==4==e==+==a=======1==e==+==a==2==e==+==a==3==e==+==a==4==e==+==a====
G|----------------------------------------------------|----------------------------------------------------|
D|----------------------------------------------------|----------------------------------------------------|
A|--------------------------4-----4-------------------|--------2-----2-----------------2-----4-----5L------|
E|--2-----2-------------------------------------------|--------------------0-------------------------------|


G|----------------------------------------------------|----------------------------------------------------|
D|----------------------------------------------------|----------------------------------------------------|
A|--5L----------------------5-----5-----4-----2L------|--2-------------------------------------------------|
E|----------------------------------------------------|----------------------------------------------------|


Bridge (1:29)

G|----------------------------------------------------|----------------------------------------------------|
D|----------------------------------------------------|----------------------------------------------------|
A|--5-----5--5--5--5--5--5--5--5--5--5--5-----4-------|--2-----2--2--2--2--2--2--2--2--2--2--2-----3-------|
E|----------------------------------------------------|----------------------------------------------------|


G|----------------------------------------------------|----------------------------------------------------|
D|----------------------------------------------------|----------------------------------------------------|
A|--4-----4--4--4--4--4--4--4--4--4--4--4-----5-------|--4-----------------------------------4-----6-------|
E|----------------------------------------------------|--------1--1--1--1--1--1--1--1--1--1----------------|


G|--------------------------------------------1-------|----------------------------------------------------|
D|--------3--1--3-----------3--1--3-------------------|--------1--0--1-------------------------------------|
A|----------------------------------------------------|--------------------2--2--2--2--2--2--2--2--2--2----|
E|----------------------------------------------------|----------------------------------------------------|


G|----------------------------------------------------|----------------------------------------------------|
D|--1-----1--1--1--1--1--1--1--1--1--1--1--1--1--1----|----------------------------------------------------|
A|----------------------------------------------------|--0-----0--0--0--0--0--0--0--0--0--0--0--0--0--0----|
E|----------------------------------------------------|----------------------------------------------------|


G|----------------------------------------------------|----------------------------------------------------|
D|----------------------------------------------------|----------------------------------------------------|
A|--5-----5--5--5--5--5--5--5--5--5--5--5-----4-------|--2-----2--2--2--2--2--2--2--2--2--2--2-----3-------|
E|----------------------------------------------------|----------------------------------------------------|


G|----------------------------------------------------|----------------------------------------------------|
D|----------------------------------------------------|----------------------------------------------------|
A|--4-----4--4--4--4--4--4--4--4--4--4--4-----5-------|--4-----------------------------------4-----6-------|
E|----------------------------------------------------|--------1--1--1--1--1--1--1--1--1--1----------------|


G|--------------------------------------------1-------|----------------------------------------------------|
D|--------3--1--3-----------3--1--3-------------------|--------1--0--1-------------------------------------|
A|----------------------------------------------------|--------------------2--2--2--2--2--2--2--2--2--2----|
E|----------------------------------------------------|----------------------------------------------------|


G|----------------------------------------------------|----------------------------------------------------|
D|--1-----1--1--1--1--1--1--1--1--1--1--1--1--1--1----|----------------------------------------------------|
A|----------------------------------------------------|--0-----0--0--0--0--0--0--0--0--0--0--0--0--0--0----|
E|----------------------------------------------------|----------------------------------------------------|


G|----------------------------------------------------|----------------------------------------------------|
D|--1-----1--1--1--1--1--1--1--1--1--1--1--1--1--1----|----------------------------------------------------|
A|----------------------------------------------------|--0-----------0--0--0--0--0-----0-------------------|
E|----------------------------------------------------|----------------------------------------------------|


Chorus 2 (2:05)

G|----------------------------------------------------|----------------------------------------------------|
D|--------------------------2-------------------------|--------------2-------------------------------------|
A|-----------------------2----------------------------|-----------2----------------------------------------|
E|--2--------2--5--2--5-----------2--------------2----|--5--2--5-----------2-----------2-----------2-------|


G|----------------------------------------------------|----------------------------------------------------|
D|--------------------------2-------------------------|--------------2-------------------------------------|
A|-----------------------2----------------------------|-----------2----------------------------------------|
E|-----------2--5--2--5-----------2--------------2----|--5--2--5-----------2-----------2-----------2-------|


G|----------------------------------------------------|----------------------------------------------------|
D|--------------------------2-------------------------|--------------2-------------------------------------|
A|-----------------------2----------------------------|-----------2----------------------------------------|
E|--2--------2--5--2--5-----------2--------------2----|--5--2--5-----------2-----------2-----------2-------|


G|----------------------------------------------------|----------------------------------------------------|
D|--------------------------2-------------------------|--------------2-------------------------------------|
A|-----------------------2----------------------------|-----------2----------------------------------------|
E|-----------2--5--2--5-----------2--------------2----|--5--2--5-----------2-----------2-----------2-------|

Outro (2:22)

G|----------------------------------------------------|----------------------------------------------------|
D|----------------------------------------------------|----------------------------------------------------|
A|--2L------------------------------------------------|-(2)------------------------------------------------|
E|----------------------------------------------------|----------------------------------------------------|


G|----------------------------------------------------|----------------------------------------------------|
D|----------------------------------------------------|----------------------------------------------------|
A|--0L------------------------------------------------|-(0)------------------------------------------------|
E|----------------------------------------------------|----------------------------------------------------|


G|----------------------------------------------------|----------------------------------------------------|
D|----------------------------------------------------|----------------------------------------------------|
A|----------------------------------------------------|----------------------------------------------------|
E|--3L------------------------------------------------|-(3)------------------------------------------------|


G|----------------------------------------------------|----------------------------------------------------|
D|----------------------------------------------------|----------------------------------------------------|
A|----------------------------------------------------|----------------------------------------------------|
E|--1L------------------------------------------------|-(1)------------------------------------------------|


G|----------------------------------------------------|----------------------------------------------------|
D|--2L------------------------------------------------|-(2)------------------------------------------------|
A|----------------------------------------------------|----------------------------------------------------|
E|----------------------------------------------------|----------------------------------------------------|



            
            
Suggest correction
Creating personal tab
Creating personal tab
You can edit any tab online and save it as your Personal.

You can edit, replace or remove any tab part or add personal notes – all changes will be seen only by you.

Personal tabs can be accessed anytime from any device, even offline.
Learn more »
Give kudos to tab author, rate the tab!
1 2 3 4 5
comments
print report bad tab
guest
You may want to rate the tab now too:
select rating
Wanna post a correction for this tab? Suggest correction