Oops, an error
Loading. Please wait.

Pale Blue Dot bass

version 1
version 1

Whole song

Interactive

by Twrp
448 views 12 this week
no commentswrite comment
1 2 3 4 5
2 more votes to show rating
add to favorites
×
Save as Personal and add changes to this tab that will be seen only by you. Learn more ›
×
You can save this tab as Personal to edit and correct it or add notes. All changes will be seen only by you. Learn more »
launch autoscroll
font size
0
reset
guitar tuner
edit
Autoscroll
slow
fast
+/-
esc
set tempo
stop
Author
Difficulty
 [Intro 0:42]

G|----------------------------------------------------|-----7-----------------------------7----------------||
D|----------------------------------------------------|----------------------------------------------------||
A|--2-----------2--------2-----2-----2-----2-----2----|--5-----5-----5--------5-----5--------5-----5-------||
E|----------------------------------------------------|----------------------------------------------------||


 [Pre-Verse [0:53]

G||--------5-------------5-------------5--------------|----------------------------------------------------|
D||---------------------------------------------------|-----3-----------------------2-----3-----4----------|
A||-3-----------------------------------------3~------|----------------------------------------------------|
E||---------------6-------------3---------------------|--------0-----1-----0--1----------------------------|

G|----------------------------------------------------|--------------------------------3-----------4------||
D|-------------x-----5--------------------------------|-------3-----3--------3----------------------------||
A|----------------------------------5-----1-----------|-------------------------1-----------2-------------||x3
E|--3--------x-----x-----1--3-----3--------------1L---|-(1)-------------1---------------------------------||
      
G|-----------------------------------5----------------|-----------------------------------5----------------|
D|----------------------------------------------------|----------------------------------------------------|
A|--3-----3-----------3--------3--------3-----1-------|--3-----3-----------3--------3--------3-----1-------|
E|----------------------------------------------------|----------------------------------------------------|

G|-----------------------------------5----------------|-----------------------------------5---------------||
D|----------------------------------------------------|---------------------------------------------------||
A|--3-----3-----------3--------3--------3-----1-------|--3-----3-----------3--------3--------3-----1------||
E|----------------------------------------------------|---------------------------------------------------||

G|-----------------------------------5----------------|-----------------------------------5----------------|
D|----------------------------------------------------|----------------------------------------------------|
A|--3-----3-----------3--------3--------3-----1-------|--3-----3-----------3--------3--------3-----1-------|
E|----------------------------------------------------|----------------------------------------------------|

G|----------------------------------------------------|----------------------------------------------------|
D|-----------------------------------3----------------|-----------------------------------3----------------|
A|----------------------------------------------------|----------------------------------------------------|
E|--1-----1-----------1--------1--------1-----1-------|--1-----1-----------1--------1--------1-----1-------|

G|----------------------------------------------------|-----------------------------3--------3------------||
D|-----------------------------------6----------------|---------------------------------------------------||
A|----------------------------------------------------|--1-----1-----------1--------------1---------------||
E|--4-----4-----------4--------4--------4-----2-------|---------------------------------------------------||



[Verse 1:34]

G||----------------------------------5----------------|-----------------------------------5----------------|
D||---------------------------------------------------|----------------------------------------------------|
A||-3-----3-----------3--------3--------3-----1-------|--3-----3-----------3--------3--------3-----1-------|
E||---------------------------------------------------|----------------------------------------------------|

G|----------------------------------------------------|----------------------------------------------------|
D|-----------------------------------3----------------|-----------------------------------3----------------|
A|----------------------------------------------------|----------------------------------------------------|
E|--1-----1-----------1--------1--------1-----1-------|--1-----1-----------1--------1--------1-----1-------|

G|----------------------------------------------------|-----------------------------3--------3------------||
D|-----------------------------------6----------------|---------------------------------------------------||
A|----------------------------------------------------|--1-----1-----------1--------------1---------------||x2
E|--4-----4-----------4--------4--------4-----2-------|---------------------------------------------------||

G|----------------------------------------------------|----------------------------------------------------|
D|----------------------------------------------------|-----------------------6----------------------------|
A|----------------------------------------------------|----------------------------------------------------|
E|--4-------------4-------------4-------------4-------|--4-----------4-----------4-----------4-----3-------|

G|----------------------------------------------------|----------------------------------------------------|
D|----------------------------------------------------|-----------------------3-----------------3----------|
A|----------------------------------------------------|----------------------------------------------------|
E|--1------1------1-------------1-------------1-------|--1-----------1-----------1-----------1-----1-------|

G|----------------------------------------------------|----------------------------------------------------|
D|----------------------------------------------------|-----------------------6----------------------------|
A|----------------------------------------------------|----------------------------------------------------|
E|--4-------------4-------------4-------------4-------|--4-----------4-----------4-----------4-------------|

G|----------------------------------------------------|---------------------------------------------------||
D|----------------------------------------------------|-----------------------5-----------------5---------||
A|----------------------------------------------------|---------------------------------------------------||
E|--3------3------3-------------3-------------3-------|--3-----------3-----------3-----------3-----3------||


[Chorus 2:16]

G||--------5-------------5-------------5--------------|----------------------------------------------------|
D||---------------------------------------------------|-----3-----------------------2-----3-----4----------|
A||-3-----------------------------------------3~------|----------------------------------------------------|
E||---------------6-------------3---------------------|--------0-----1-----0--1----------------------------|

G|----------------------------------------------------|--------------------------------3-----------4------||
D|-------------x-----5--------------------------------|--------3-----3--------3---------------------------||
A|----------------------------------5-----1-----------|--------------------------1-----------2------------||x3
E|--3--------x-----x-----1--3-----3--------------1L---|-(1)-------------1---------------------------------||


 [Verse 2:39]

G||----------------------------------5----------------|-----------------------------------5----------------|
D||---------------------------------------------------|----------------------------------------------------|
A||-3-----3-----------3--------3--------3-----1-------|--3-----3-----------3--------3--------3-----1-------|
E||---------------------------------------------------|----------------------------------------------------|

G|----------------------------------------------------|----------------------------------------------------|
D|-----------------------------------3----------------|-----------------------------------3----------------|
A|----------------------------------------------------|----------------------------------------------------|
E|--1-----1-----------1--------1--------1-----1-------|--1-----1-----------1--------1--------1-----1-------|

G|----------------------------------------------------|-----------------------------3--------3------------||
D|-----------------------------------6----------------|---------------------------------------------------||
A|----------------------------------------------------|--1-----1-----------1--------------1---------------||x2
E|--4-----4-----------4--------4--------4-----2-------|---------------------------------------------------||

G|----------------------------------------------------|----------------------------------------------------|
D|----------------------------------------------------|-----------------------6----------------------------|
A|----------------------------------------------------|----------------------------------------------------|
E|--4-------------4-------------4-------------4-------|--4-----------4-----------4-----------4-----3-------|

G|----------------------------------------------------|----------------------------------------------------|
D|----------------------------------------------------|-----------------------3-----------------3----------|
A|----------------------------------------------------|----------------------------------------------------|
E|--1------1------1-------------1-------------1-------|--1-----------1-----------1-----------1-----1-------|

G|----------------------------------------------------|----------------------------------------------------|
D|----------------------------------------------------|-----------------------6----------------------------|
A|----------------------------------------------------|----------------------------------------------------|
E|--4-------------4-------------4-------------4-------|--4-----------4-----------4-----------4-------------|

G|----------------------------------------------------|---------------------------------------------------||
D|----------------------------------------------------|-----------------------5-----------------5---------||
A|----------------------------------------------------|---------------------------------------------------||
E|--3------3------3-------------3-------------3-------|--3-----------3-----------3-----------3-----3------||




[Chorus 3:24]

G||--------5-------------5-------------5--------------|----------------------------------------------------|
D||---------------------------------------------------|-----3-----------------------2-----3-----4----------|
A||-3-----------------------------------------3~------|----------------------------------------------------|
E||---------------6-------------3---------------------|--------0-----1-----0--1----------------------------|

G|----------------------------------------------------|--------------------------------3-----------4------||
D|--------------x-----5-------------------------------|--------3-----3--------3---------------------------||
A|-----------------------------------5-----1----------|--------------------------1-----------2------------||x2
E|--3--------x-----x-----1--3-----3--------------1L---|-(1)-------------1---------------------------------||
G|---------5-------------5-------------5--------------|----------------------------------------------------|
D|----------------------------------------------------|-----3-----------------------2-----3-----4----------|
A|--3-----------------------------------------3~------|----------------------------------------------------|
E|---------------6-------------3----------------------|--------0-----1-----0--1----------------------------|

G|----------------------------------------------------|---------------------------------------------------||
D|--------------x-----5-------------------------------|-----------3-----3--------3------------------------||
A|-----------------------------------5-----1----------|---------------------------------------------------||
E|--3--------x-----x-----1--3-----3--------------1L---|-(1)----------------------------------1-----1------||


[Guitar Solo 3:47]

G|-----------------5----------------------------------|----------------------------------------------------|
D|----------------------------------------------------|--------3--------3-----------3----------------------|
A|--1-----3-----------3-----1-----3-----3-------------|--------------------------------------------1-------|
E|----------------------------------------------------|--1-----------------------------1-----3-------------|

G|----------------------------------------------------|--1-----------1--------------1----------------------|
D|----------------------------------------------------|--------------------------------1-------------------|
A|--1-----3-----------3-----1-----3-----3-------------|--------------------------------------5-----4-------|
E|----------------------------------------------------|----------------------------------------------------|
     
G|-----------------5----------------------------------|----------------------------------------------------|
D|----------------------------------------------------|--------3--------3-----------3----------------------|
A|--1-----3-----------3-----1-----3-----3-------------|--------------------------------------------1-------|
E|----------------------------------------------------|--1-----------------------------1-----3-------------|

G|----------------------------------------------------|--1-----------1--------------1----------------------|
D|----------------------------------------------------|--------------------------------1-------------------|
A|--1-----3-----------3-----1-----3-----3-------------|--------------------------------------5-----4-------|
E|----------------------------------------------------|----------------------------------------------------|
                   
G|-------|-------|-------|-------|-------||
D|-------|-------|-------|-------|-------||
A|-(3L)--|-(3L)--|-(3L)--|-(3L)--|-(3)---||
E|-------|-------|-------|-------|-------||


[Outro 4:14]

G||---------------------------------------------------|----------------------------------------------------|
D||---------------------------------------------------|----------------------------------------------------|
A||-3--3--------3--------3-----3-----3-----3----------|--3--3--------3--------3-----3-----3-----3-----3----|
E||---------------------------------------------------|----------------------------------------------------|

G|----------------------------------------------------|----------------------------------------------------|
D|----------------------------------------------------|----------------------------------------------------|
A|----------------------------------------------------|----------------------------------------------------|
E|--1-----------1--------1-----1-----1-----1----------|--1--------1--1--------1-----1--1-----1--------1----|

G|----------------------------------------------------|---------------------------------------------------||
D|----------------------------------------------------|---------------------------------------------------||
A|----------------------------------------------------|-------1-----1--------1-----1-----1--------1-------||x5
E|--4------4------4------4------4------4------4-------|----------------------------------------3-----3----||
   
G|----------------------------------------------------|----------------------------------------------------|
D|----------------------------------------------------|----------------------------------------------------|
A|--3--3--------3--------3-----3-----3-----3----------|--3--3--------3--------3-----3-----3-----3-----3----|
E|----------------------------------------------------|----------------------------------------------------|

G|----------------------------------------------------|----------------------------------------------------|
D|----------------------------------------------------|----------------------------------------------------|
A|----------------------------------------------------|----------------------------------------------------|
E|--1-----1--1--1-----1--1--1-----1--1--1-----1--1----|--1-----1--1--1-----1--1--1-----1--1--1-----1--1----|

G|----------------------------------------------------|----------------------------------------------------|
D|----------------------------------------------------|----------------------------------------------------|
A|----------------------------------------------------|----------------------------------------------------|
E|--4-----4-----4-----------4--------4--4-----4-------|--6-----6-----6-----------6--------6--6-----6-------|

G|----------------------------------------------------|--------0--0--0--0--0--0----------------------------|
D|--------------------0--0--0--0--0--0--1--1--1--1----|--1--1--------------------3--3--3--3--3--3--3--3----|
A|----------------------------------------------------|----------------------------------------------------|
E|--8--8--8--8--8--8----------------------------------|----------------------------------------------------|

G|----------------------------------------------------|----------|
D|--3--3--3--3--3--3--3--3--3--3--3--3--3--3--3--3----|----------|
A|----------------------------------------------------|--3-------|
E|----------------------------------------------------|----------|



************************************

| x    Dead note
| (n)  Ghost note
| ~    Vibrato 
| L    Tied note

************************************

            
            
Suggest correction
Creating personal tab
Creating personal tab
You can edit any tab online and save it as your Personal.

You can edit, replace or remove any tab part or add personal notes – all changes will be seen only by you.

Personal tabs can be accessed anytime from any device, even offline.
Learn more »
Give kudos to tab author, rate the tab!
1 2 3 4 5
comments
print report bad tab
guest
You may want to rate the tab now too:
select rating
Wanna post a correction for this tab? Suggest correction