Oops, an error
Loading. Please wait.

Time To Shine bass

version 1
version 1

Whole song

Interactive

by TWRP
1,126 views 12 this week
1 commentread comment
1 2 3 4 5
1 last vote to show rating
add to favorites
×
Save as Personal and add changes to this tab that will be seen only by you. Learn more ›
×
You can save this tab as Personal to edit and correct it or add notes. All changes will be seen only by you. Learn more »
launch autoscroll
font size
0
reset
guitar tuner
edit
Autoscroll
slow
fast
+/-
esc
set tempo
stop
Author
As soon as I listened to Guardians of the Zone I knew that I had to do at least one of
the bass tabs for it. Since I got time free I decided to give it a go and picked the best solo on the album
and possibly in TWRP history. I may do more TWRP tabs in the future such as The Hit and Japanquest but in the
meantime please enjoy this funky shit and suggest any improvements if you see any. Meouch is a god <3

Edit: This tab has gone through a lot of improvements which have been mainly done by Greeem17, also known as
Condensor on Reddit. Without him this wouldnt be possible so be sure to check out his tabs, especially if
you're a fan of TWRP: https://www.ultimate-guitar.com/contribution/890138-Greeem17/tabs


[Intro] 0:00 - 0:14

G |-------|-------|-------|-------|-------|----------------|-------|----------------|-------|
D |-------|-------|-------|-------|-------|----------------|-------|----------------|-------|
A |--5~---|--7~---|-------|-------|--9L---|--9--------2s---|--9L---|--9--------9s---|--14---|
E |-------|-------|--3~---|--5~---|-------|----------------|-------|----------------|-------|

0:20 - 0:31

|----------------------------|----------------------------|
|----------------------------|----------------------------|
|----------------------------|----------------------------|
|-----------------------3L---|--3--------5L-5--------7----|

|----------------------------|----------------------------|
|----------------------------|----------------------------|
|----------------------------|----------------------------|
|-----------------------3L---|--3--------5L-5--------7----|

|----------------------------|----------------------------|
|----------------------------|----------------------------|
|----------------------------|-----------------------5L---|
|-----------------------3L---|--3--------5L-5-------------|

|----------------------------|----------------------------|
|----------------------------|----------------------------|
|--5-------------------------|----------------------------|
|-----------2L-2--------3L---|--3--------5L-5--------7----|

[Verse 1] 0:33 - 0:57

|----------------------------|----------------------------|
|---------9p7--9-------------|---7p9--7h9-----------------|
|---------------------7h9----|----------------------------|
|----------------------------|----------------------------|

|----------------------------|------9---------------------|
|---------9p7--9-------------|---7-----7h9----------------|
|---------------------7h9----|----------------------------|
|----------------------------|----------------------------|

|----------------------------|----------------------------|
|---------9p7--9-------------|---7p9--7h9-----------------|
|---------------------7h9----|----------------------------|
|----------------------------|----------------------------|

|----------------------------|--------7--9/11--7----------|
|---------9p7--9-------------|---7p9--------------9-------|
|---------------------7h9----|----------------------------|
|----------------------------|----------------------------|

|----------------------------|-------------14-15-16-------|
|---------9p7--9-------------|---7p9--7h9-----------------|
|---------------------7h9----|----------------------------|
|----------------------------|----------------------------|

|----------------------------|------9---------------------|
|---------9p7--9-------------|---7-----7h9----------------|
|---------------------7h9----|----------------------------|
|----------------------------|----------------------------|

|----------------------------|----------------------------|
|---------9p7--9-------------|---7p9--7h9-----------------|
|---------------------7h9----|----------------------------|
|----------------------------|----------------------------|

|----------------------------|----------------------------|
|---------9p7--9-------------|---7p9-----6-----7----------|
|---------------------7h9----|----------------------------|
|----------------------------|--------4-----5-----6---7L--|


[Bass Solo] 0:58 - 1:23

|----------------------------|----------------------------|----------------------------|
|------9-----7--9------------|---9p7--------9-------------|---------------------6------|
|----------------------------|---------9---------9--------|-------------------------4--|
|---7--------------------7---|------------------------7---|-6----5----4L----4----------|

|----------------------------|----------------------------|----------------------------|
|--4--5--6--4------------6---|------6.-6.-------6.--------|-------------4-----2--3--4--|
|--------------6-------------|-------------6.-----------6-|----------------2-----------|
|-------------------4--------|--4-------------------4-----|--4---2L---2----------------|

|----------------------------|-------------------7----7--7|-----7-----9----6----7----9s|
|----------4s---16L---16-----|-----4----------------------|----------------------------|
|--4-------------------------|-----------5L---5-----5-----|--5-----7-----4----5----7---|
|------2------------------2s-|--2-----2-------------------|----------------------------|

|--11--------------9h11---9--|-14-15-16-15-14-------------|--------------------------13|
|--------------9-------------|----------------16-15-14-12-|---12-----------------------|
|----------------------------|----------------------------|14----12-13-14-12-11L--11---|
|-----7L---7-----------------|----------------------------|----------------------------|

|----------------------------|----------------------------|----------------------------|
|-----------6--6-----6-------|-6--6.-----------5----------|--5--5----------------------|
|-----------------------6----|----------------------------|-----------5-----------5----|
|--11s---4--------4--------4-|-------4.-4.--3-----3--0s--3|--------3.----3--3--3-----3-|

|---------7-----7--7-----7---|--9-----6-------------------|
|----------------------------|-----------------4--4--4----|
|--3s--5-----5--------5-----7|-----4-----4--4-----------4-|
|----------------------------|----------------------------|


[Bridge] 1:24 - 1:44

G|---------------------------|----------------------------|----------------------------|
D|---------------------------|----------------------------|----------------------------|
A|---------------------------|----------------------------|----------------------------|
E|-2L-----------------2--3L--|--3L-----------------3--2L--|-2L----------------2--4--3L-|

|----------------------------|----------------------------|----------------------------|
|------5p7--5----------------|----------------------------|----------------------------|
|--------------5-------------|----------------------------|----------------------------|
|---3--------------3L--------|---3L---------------3--5L---|-5L------------------5--3L--|

|----------------------------|----------------------------|
|--------5-----------4-------|--------3-------------------|
|-----5-----------4----------|-----3----------------------|
|--3--------2L-2--------1L---|--1--------0L-0L------------|


[Bass Solo 2] 1:45 - 2:13


|----------------------------|----------------------------|----------------------------|
|----------------------------|----------------------------|---------6-------------6--6-|
|----------------------------|---------------------7------|----------------------------|
|---0---7---7----5--6--7-----|-5--6--7----5--6--7-----5---|--4L--4------2--3--4--------|

|----------------------------|----------------------------|----------------------------|
|-----6-----------6----------|-------------------------4--|----------------------------|
|-----------6----------------|----------------------------|-----------4-------5L--5----|
|--4-----4-----4-----4--2L---|--2---0--1--2---0--1--2-----|--0--1--2------0----------7-|

|----------------------------|----------------------------|----------------------------|
|----------------------------|----------------------7p8p9-|--7~------7-----------------|
|--5h7L--4L--4--4--4---------|----------------------------|-------9-----9--------------|
|---------------------4--5--6|--7L--7--7---5--6--7--------|----------------4L---4--4---|

|----------------------------|----------------------------|----------------------------|
|----------6--6--6-----6-----|--------------------5-------|----------------------------|
|-------------------7-----7--|----------------------------|-5----------------5L--5--5--|
|--2--3--4-------------------|-5--3L--3--3---0h3-----0h3--|-----0s--3--3--3------------|

|----------------------6-----|----------------------------|
|----------------------------|----------------------------|
|-----5--7L--7---4L-4------4-|-1--2--3--4-----------------|
|--5-------------------------|----------------------------|


[Outro] 2:14 - End

G |------|------|------|------|------|------|------|------|------|------|------|------|------|
D |------|------|------|------|------|------|------|------|--9---|--9L--|--9L--|--9L--|--9---|
A |--5~--|--7~--|------|------|--9L--|--9---|--9L--|--9---|--9---|--9l--|--9L--|--9L--|--9---|
E |------|------|--3~--|--5~--|------|------|------|------|------|------|------|------|------|

************************************

| L   Tied note
| .   Staccato
| s   Slap
| h   Hammer-on
| p   Pull-off
| /   Slide up
| \   Slide down
| ~   Vibrato

************************************

            
            
Suggest correction
Creating personal tab
Creating personal tab
You can edit any tab online and save it as your Personal.

You can edit, replace or remove any tab part or add personal notes – all changes will be seen only by you.

Personal tabs can be accessed anytime from any device, even offline.
Learn more »
Give kudos to tab author, rate the tab!
1 2 3 4 5
comments
print report bad tab
1 comment total.
0 reply
tmiam0720 10 Jul 13, 2016 12:28 PM

I would give anything for a Japanquest, dude. You did a great job on this one!

guest
You may want to rate the tab now too:
select rating
Wanna post a correction for this tab? Suggest correction