Oops, an error
Loading. Please wait.

Todo Lo Que Soy Tab

version 2
version 2

Whole song

14 views 1 this week
no commentswrite comment
1 2 3 4 5
3 more votes to show rating
add to favorites
launch autoscroll
font size
0
reset
how to read this tab
guitar tuner
×
Best way to learn
"Todo Lo Que Soy"
Autoscroll
slow
fast
+/-
esc
set tempo
stop
TODO ESTÁ BIEN, SOLO AGREGUÉ EL SOLO.


Intro:

    D            A         G
e|----2--x-|-----0--x-|------------|
B|----3--x-|-----2--x-|-------3--x-|
G|----2--x-|-----2--x-|-------0--x-|
D|-0-----x-|--2-----x-|-------0--x-|
A|---------|----------|--0-2-----x-|
E|---------|----------|------------|

    G                                    A
e|------------------------------------|-----------|
B|----3---------3-x-----0-x-------0-x-|-----2/3/2-|
G|----0---------0-x-----0-x-------0-x-|-----2-----|
D|----0---------0-x-----0-x-------3-x-|-----2-----|
A|-0----------------------------------|--0--------|
E|-------0-2-3-------2-------2-3------|-----------|


     D        A        G       D      G         A       D
e|-----2-x-|-----5-x-|-----------|--2--|-------------|---------|--2--2-|
B|-----3-x-|-----2-x-|-------3-x-|--3--|---------3-x-|-----2-x-|--3--3-|
G|-----2-x-|-----2-x-|-------0-x-|--2--|---------0-x-|-----2-x-|--2--2-|
D|--0----x-|--2----x-|-------0-x-|--0--|---------0-x-|-----2-x-|--0--0-|
A|---------|---------|--0-2------|-----|-------------|--0------|-------|
E|---------|---------|-----------|-----|--0-2-3------|---------|-------|


D      A   G
Sonreir, fue lo mas importante
D       A
que el demostro
D     A
me enseño
G
a juzgar con prudencia
D        A
vivir sin temor
G                 D
dicen que tengo sus ojos
G                    D    A
dicen que tengo su voz
G                   D
y que anclado en mi alma
G                   A
yace el barco de su corazon.

G           A
Volare muy lejos
D     A        G
hasta el mismo sol
G           A
surcare los mares
D      A           G
con su viento a mi favor
G         A
pedire al cielo
D    A          G
que me otorgue su favor
G
para encontrale y decirle
             A
que gracias a el
                D
soy todo lo que soy

SOLO

e|-2-3-2h3p2----5---2h3p3-----------------------------------------|
B|------------5------------3h5p3-2~-------2h3------------3-5/7-5~-|
G|------------------------------------2h4------2-------4----------|
D|-----------------------------------------------4---4------------|
A|----------------------------------------------------------------|
E|----------------------------------------------------------------|

e|------------------7h9-10~--7-9----------------------------------|
B|-----7h8--/10-10~--------------10--7h8/10/8-7-------------------|
G|-7h9------------------------------------------9-7/6/7--7~-------|
D|----------------------------------------------------------------|
A|----------------------------------------------------------------|
E|----------------------------------------------------------------|


D      A
con teson
G
me llevo a conocer
D             A
cada parte de mi
D       A
se empeño
G
en no dejarme caer
D                A
y empujarme a seguir
G                  D
dicen que tengo su risa
G                         D  A
sus miedos su fuerza y valor
G                        D
que cuando yo canto el habla
G                          A
que atravez de mi suena su voz

G           A
Volare muy lejos
D     A        G
hasta el mismo sol
G           A
surcare los mares
D      A           G
con su viento a mi favor
G         A
pedire al cielo
D    A          G
que me otorgue su favor
G
para encontrale y decirle
             A
que gracias a el
                 D
soy todo lo que soy


*EL FINAL ES IGUAL QUE EL INTRO PERO EN RITARDANDO

Dedidicada a todos lo seguidores de Mago de Oz y Del Heavy en general
 Y a todos los que suben sus canciones a 
Suggest correction
Give kudos to tab author, rate the tab!
1 2 3 4 5
comments
print report bad tab
guest
You may want to rate the tab now too:
select rating
Wanna post a correction for this tab? Suggest correction