Oops, an error
Loading. Please wait.

California Hillls Acoustic chords

2,158 views 24 this week
1 commentread comment
1 2 3 4 5
x 8
add to favorites
×
Save as Personal and add changes to this tab that will be seen only by you. Learn more ›
×
You can save this tab as Personal to edit and correct it or add notes. All changes will be seen only by you. Learn more »
launch autoscroll
font size
0
reset
transpose
0
reset
simplify chords
display chords
guitar tuner
edit
Autoscroll
slow
fast
+/-
esc
set tempo
stop
Strumming
There is no strumming pattern for this song yet. and get +5 IQ
This is the acoustic version that was played at Pickathon, Check it out here: 
https://www.youtube.com/watch?v=SkIlGHGzIcw
This is the tab for Ty's part. He plays it on a 12-string but it still sounds good on a 6-string
Tuning is in standard, but tuned 2 half-steps down (or 1 full step)
The song speeds up during the fill, just Listen to the song to figure out the timing. Enjoy!

(Chords)

   D    G    F    C    A7    F*    A*
d|--2----3----1----0----3----------------|
a|--3----0----1----1----2-----10----7----|
f|--2----0----2----0----2-----10----7----|
C|--0----0----3----2----2-----10----7----|
G|-------2----3----3----0-----8-----5----|
D|--x----3----x----x----x----------------|
    D    G    F    C    A7    F*    A*


[Verse]

D          G     D
I miss the candy queens
D                G          D
I met the court, they're so mean
F             C    A7
Sound the Dionysus bell
F             G       D
Send them all back to hell 


[Instrumental]

d|---3------1------3------1-----2~~-------|
a|-----2------0------2------0---3~~-------|
f|--2----2-0----0-2----2-0----0-2~~-------|x2
C|------------------------------0~~-------|
G|----------------------------------------|
D|----------------------------------------|


[Verse]

C        G
American nightmare
G           D
Guilty generation
C              G                            D
Fingers on the pulse of their parents' alienation
         F        C            G              D
From the history, histories of western civilization
F*   A*
Ahhhhhhhh


[Instrumental]

d|---3------1------3------1-----2~~-------|
a|-----2------0------2------0---3~~-------|
f|--2----2-0----0-2----2-0----0-2~~-------|x2
C|------------------------------0~~-------|
G|----------------------------------------|
D|----------------------------------------|


[Verse]

    D       G        D
The gift of affluent life
    D             G      D
Was wasted on the fickle wife
    D            G       D
Who slept in Californian Hills
    D                G        D
And gave herself the sleeping pills
    F             C      A7
And waits for the dollar bills
    F                G       D
The papers say we're going to hell
F*   A*
Ahhhhhhhh


[Outro]

F*  A*  F*  A*  F*  A*  
F*  A*  F*  A*  F*  A*  

d|---3------1------3------1-----2~~-------|
a|-----2------0------2------0---3~~-------|
f|--2----2-0----0-2----2-0----0-2~~-------|x2
C|------------------------------0~~-------|
G|----------------------------------------|
D|----------------------------------------|

***********************************
| ~   Vibrato
***********************************

            
            
Suggest correction
Creating personal tab
Creating personal tab
You can edit any tab online and save it as your Personal.

You can edit, replace or remove any tab part or add personal notes – all changes will be seen only by you.

Personal tabs can be accessed anytime from any device, even offline.
Learn more »
comments
print report bad tab
1 comment total.
0 reply
aidan_long1 10 Apr 18, 2016 04:08 PM

Sounds right 5/5

guest
You may want to rate the tab now too:
select rating
Wanna post a correction for this tab? Suggest correction