Oops, an error
Loading. Please wait.

Diversion Bass Tab

28 views 3 this week
no commentswrite comment
1 2 3 4 5
3 more votes to show rating
add to favorites
launch autoscroll
font size
0
reset
guitar tuner
Autoscroll
slow
fast
+/-
esc
set tempo
stop
Help us to improve Ultimate-Guitar.com Take our survey!
×
[Intro]

G|--------------------------------------|----------------------------------------|
D|--------------------------------------|----------------------------------------|
A|--------------------------------------|----------------------------------------|
E|-10-10-10-10-10-10-10-10-10-10-10-10\-|-/10-10-10-10-10-10-10-10-10-10-10-10\--|

G|--------------------------------------|----------------------------------------|
D|--------------------------------------|----------------------------------------|
A|--------------------------------------|----------------------------------------|
E|-10-10-10-10-10-10-10-10-10-10-10-10\-|-/10-10-10-10-10-10-10-10-10-10-10-10\--|

G|--------------------------------------|----------------------------------------|
D|--------------------------------------|----------------------------------------|
A|--------------------------------------|----------------------------------------|
E|-10-10-10-10-10-10-10-10-10-10-10-10\-|-/10-10-10-10-10-10-10-10-10-10-10-10\--|

G|--------------------------------------|----------------------------------------|
D|--------------------------------------|----------------------------------------|
A|--------------------------------------|----------------------------------------|
E|-10-10-10-10-10-10-10-10-10-10-10-10\-|-/10-10-10-10-10-10-10-10-10-10-10-10\--|


[Verse]

G|--------------------------------------|----------------------------------------|
D|--------------------------------------|----------------------------------------|
A|--------------------------------------|----------------------------------------|
E|-10-10-10-10-10-10-10-10-10-10-10-10\-|-/10-10-10-10-10-10-10-10-10-10-10-10\--|

G|----------------------------------------------------------------|
D|----------------------------------------------------------------|
A|----------------------------------------------------------------|
E|-10-10-10-10-10-10-10-10-10-10-10-10\--/5-5-5-5-5-5-5-5-5-5-5---|

G|----------------------------------------------------------------|
D|----------------------------------------------------------------|
A|----------------------------------------------------------------|
E|-10-10-10-10-10-10-10-10-10-10-10-10\--/3-3-3-3-3-3-3-3-3-3-3---|

[Chorus]

G|--------------------------------------------------------------------------------------|
D|--------------------------------------------------------------------------------------|
A|--------7-7-7-7-7-7-------7-7-7-7-7-7-------7-7-7-7-7-7-------------------------------|
E|-5-5-5--------------5-5-5-------------5-5-5-------------5-5-5-5-5-5/10-10-10-10-10-10-|

[Verse]

G|--------------------------------------|----------------------------------------|
D|--------------------------------------|----------------------------------------|
A|--------------------------------------|----------------------------------------|
E|-10-10-10-10-10-10-10-10-10-10-10-10\-|-/10-10-10-10-10-10-10-10-10-10-10-10\--|

G|----------------------------------------------------------------|
D|----------------------------------------------------------------|
A|----------------------------------------------------------------|
E|-10-10-10-10-10-10-10-10-10-10-10-10\--/5-5-5-5-5-5-5-5-5-5-5---|

G|----------------------------------------------------------------|
D|----------------------------------------------------------------|
A|----------------------------------------------------------------|
E|-10-10-10-10-10-10-10-10-10-10-10-10\--/3-3-3-3-3-3-3-3-3-3-3---|

[Chorus]

G|--------------------------------------------------------------------------------------|
D|--------------------------------------------------------------------------------------|
A|--------7-7-7-7-7-7-------7-7-7-7-7-7-------7-7-7-7-7-7-------------------------------|
E|-5-5-5--------------5-5-5-------------5-5-5-------------5-5-5-5-5-5/10-10-10-10-10-10-|

[Bridge]

G|---------------------------------------------------------------------------|
D|---------------------------------------------------------------------------|
A|---------------------------------------------------------------------------|
E|-5-5-5-5-5-5-5-5-5-5-5-5-5-5-5-5-5-5-5-5-5-5-5-5-5-5-5-5-5-5-5-------------|

G|---------------------------------------------------------------------------|
D|---------------------------------------------------------------------------|
A|---------7-7-7-7----------7-7-7-7----------7-7-7-7-------------------------|
E|-7-7-7-7----------7-7-7-7----------7-7-7-7---------10-10-10-10-10-10-10-10-|

[Verse]

G|--------------------------------------|----------------------------------------|
D|--------------------------------------|----------------------------------------|
A|--------------------------------------|----------------------------------------|
E|-10-10-10-10-10-10-10-10-10-10-10-10\-|-/10-10-10-10-10-10-10-10-10-10-10-10\--|

G|----------------------------------------------------------------|
D|----------------------------------------------------------------|
A|----------------------------------------------------------------|
E|-10-10-10-10-10-10-10-10-10-10-10-10\--/5-5-5-5-5-5-5-5-5-5-5---|

G|----------------------------------------------------------------|
D|----------------------------------------------------------------|
A|----------------------------------------------------------------|
E|-10-10-10-10-10-10-10-10-10-10-10-10\--/3-3-3-3-3-3-3-3-3-3-3---|

[Chorus]

G|--------------------------------------------------------------------------------------|
D|--------------------------------------------------------------------------------------|
A|--------7-7-7-7-7-7-------7-7-7-7-7-7-------7-7-7-7-7-7-------------------------------|
E|-5-5-5--------------5-5-5-------------5-5-5-------------5-5-5-5-5-5/10-10-10-10-10-10-|

[Solo / Outro]

G|--------------------------------------|----------------------------------------|
D|--------------------------------------|----------------------------------------|
A|--------------------------------------|----------------------------------------|
E|-10-10-10-10-10-10-10-10-10-10-10-10\-|-/10-10-10-10-10-10-10-10-10-10-10-10\--|

G|--------------------------------------|----------------------------------------|
D|--------------------------------------|----------------------------------------|
A|--------------------------------------|----------------------------------------|
E|-10-10-10-10-10-10-10-10-10-10-10-10\-|-/10-10-10-10-10-10-10-10-10-10-10-10\--|

G|--------------------------------------|----------------------------------------|
D|--------------------------------------|----------------------------------------|
A|--------------------------------------|----------------------------------------|
E|-10-10-10-10-10-10-10-10-10-10-10-10\-|-/10-10-10-10-10-10-10-10-10-10-10-10\--|

G|--------------------------------------|----------------------------------------|
D|--------------------------------------|----------------------------------------|
A|--------------------------------------|----------------------------------------|
E|-10-10-10-10-10-10-10-10-10-10-10-10\-|-/10-10-10-10-10-10-10-10-10-10-10-10\--|

G|--------------------------------------|----------------------------------------|
D|--------------------------------------|----------------------------------------|
A|--------------------------------------|----------------------------------------|
E|-10-10-10-10-10-10-10-10-10-10-10-10\-|-/10-10-10-10-10-10-10-10-10-10-10-10\--|

G|--------------------------------------|----------------------------------------|
D|--------------------------------------|----------------------------------------|
A|--------------------------------------|----------------------------------------|
E|-10-10-10-10-10-10-10-10-10-10-10-10\-|-/10-10-10-10-10-10-10-10-10-10-10-10\--|

G|-------------------------------------------|----------------------------------------------| Played until the
D|-------------------------------------------|----------------------------------------------| end of the song
A|-------------------------------------8-----|----------------------------------------8-----|
E|-10-10-10-10-10-10-10-10-10-10-10-10---8-8-|-10-10-10-10-10-10-10-10-10-10-10-10-10---8-8-|


************************************

| /   Slide up
| \   Slide down
Suggest correction
Give kudos to tab author, rate the tab!
1 2 3 4 5
comments
print report bad tab
guest
You may want to rate the tab now too:
select rating
Wanna post a correction for this tab? Suggest correction