Oops, an error
Loading. Please wait.

Diversion tab

version 2
version 2

Whole song

535 views 6 this week
no commentswrite comment
1 2 3 4 5
3 more votes to show rating
add to favorites
×
Save as Personal and add changes to this tab that will be seen only by you. Learn more ›
×
You can save this tab as Personal to edit and correct it or add notes. All changes will be seen only by you. Learn more »
launch autoscroll
font size
0
reset
how to read this tab
guitar tuner
edit
Autoscroll
slow
fast
+/-
esc
set tempo
stop
Author
Difficulty
Unregistered
Tabbed by: the_raincoats

There are 2 revisions of this tab
Last change: Jan 12, 2016 by the_raincoats unregister Contributor
the_raincoats
Tabbed by: the_raincoats

Tuning: Standard

Intro:

e|---------------------------------------------------------------------------|
B|---------------------------------------------------------------------------|
G|---------------------------------------------------------------------------|
D|---------------------------------------------------------------------------|    x8
A|-/12-12-12-12-12-12-12-12-12-12-12-12-12-12--------------------------------|
E|-/10-10-10-10-10-10-10-10-10-10-10-10-10-10--------------------------------|

Verse 1:

e|---------------------------------------------------------------------------|
B|---------------------------------------------------------------------------|
G|---------------------------------------------------------------------------|
D|---------------------------------------------------------------------------|    x3
A|-/12-12-12-12-12-12-12-12-12-12-12-12-12-12--------------------------------|
E|-/10-10-10-10-10-10-10-10-10-10-10-10-10-10--------------------------------|

e|---------------------------------------------------------------------------|
B|---------------------------------------------------------------------------|
G|---------------------------------------------------------------------------|
D|---------------------------------------------------------------------------|    
A|-11-11-11-11-11-11-11-11-11-11-11-11-11-11---------------------------------|
E|-9--9--9--9--9--9--9--9--9--9--9--9--9--9----------------------------------|

e|---------------------------------------------------------------------------|
B|---------------------------------------------------------------------------|
G|---------------------------------------------------------------------------|
D|---------------------------------------------------------------------------|    
A|-/12-12-12-12-12-12-12-12-12-12-12-12-12-12--------------------------------|
E|-/10-10-10-10-10-10-10-10-10-10-10-10-10-10--------------------------------|

e|---------------------------------------------------------------------------|
B|---------------------------------------------------------------------------|
G|---------------------------------------------------------------------------|
D|---------------------------------------------------------------------------|    
A|-5-5-5-5-5-5-5-5-5-5-5-5-5-5-----------------------------------------------|
E|-3-3-3-3-3-3-3-3-3-3-3-3-3-3-----------------------------------------------|

Chorus 1: 

e|---------------------------------------------------------------------------|
B|---------------------------------------------------------------------------|
G|---------------------------------------------------------------------------|
D|----------------9-9-9-9-9-9-9-9--------------------------------------------| x3   
A|-7-7-7-7-7-7-7--7-7-7-7-7-7-7-7--------------------------------------------|
E|-5-5-5-5-5-5-5-------------------------------------------------------------|

e|---------------------------------------------------------------------------|
B|---------------------------------------------------------------------------|
G|---------------------------------------------------------------------------|
D|---------------7-7-7-7-7-7-7-----------------------------------------------|  
A|-7-7-7-7-7-7-7-5-5-5-5-5-5-5-----------------------------------------------|
E|-5-5-5-5-5-5-5-------------------------------------------------------------|


Verse 2:

e|---------------------------------------------------------------------------|
B|---------------------------------------------------------------------------|
G|---------------------------------------------------------------------------|
D|---------------------------------------------------------------------------|    x3
A|-/12-12-12-12-12-12-12-12-12-12-12-12-12-12--------------------------------|
E|-/10-10-10-10-10-10-10-10-10-10-10-10-10-10--------------------------------|

e|---------------------------------------------------------------------------|
B|---------------------------------------------------------------------------|
G|---------------------------------------------------------------------------|
D|---------------------------------------------------------------------------|    
A|-/11-11-11-11-11-11-11-11-11-11-11-11-11-11--------------------------------|
E|-/9--9--9--9--9--9--9--9--9--9--9--9--9--9---------------------------------|

e|---------------------------------------------------------------------------|
B|---------------------------------------------------------------------------|
G|---------------------------------------------------------------------------|
D|---------------------------------------------------------------------------|    
A|-/12-12-12-12-12-12-12-12-12-12-12-12-12-12--------------------------------|
E|-/10-10-10-10-10-10-10-10-10-10-10-10-10-10--------------------------------|

e|---------------------------------------------------------------------------|
B|---------------------------------------------------------------------------|
G|---------------------------------------------------------------------------|
D|---------------------------------------------------------------------------|    
A|-5-5-5-5-5-5-5-5-5-5-5-5-5-5-----------------------------------------------|
E|-3-3-3-3-3-3-3-3-3-3-3-3-3-3-----------------------------------------------|

Chorus 2: 

e|---------------------------------------------------------------------------|
B|---------------------------------------------------------------------------|
G|---------------------------------------------------------------------------|
D|----------------9-9-9-9-9-9-9-9--------------------------------------------| x3   
A|-7-7-7-7-7-7-7--7-7-7-7-7-7-7-7--------------------------------------------|
E|-5-5-5-5-5-5-5-------------------------------------------------------------|

e|---------------------------------------------------------------------------|
B|---------------------------------------------------------------------------|
G|---------------------------------------------------------------------------|
D|---------------7-7-7-7-7-7-7-----------------------------------------------|  
A|-7-7-7-7-7-7-7-5-5-5-5-5-5-5-----------------------------------------------|
E|-5-5-5-5-5-5-5-------------------------------------------------------------|

Bridge:

e|---------------------------------------------------------------------------|
B|---------------------------------------------------------------------------|
G|---------------------------------------------------------------------------|
D|---------------------------------------------------------------------------|  x2  
A|-7-7-7-7-7-7-7-7-7-7-7-7-7-7-----------------------------------------------|
E|-5-5-5-5-5-5-5-5-5-5-5-5-5-5-----------------------------------------------|

e|---------------------------------------------------------------------------|
B|---------------------------------------------------------------------------|
G|---------------------------------------------------------------------------|
D|---------------9-9-9-9-9-9-9-9--------------------------------------------| x3   
A|-9-9-9-9-9-9-9-7-7-7-7-7-7-7-7--------------------------------------------|
E|-7-7-7-7-7-7-7-------------------------------------------------------------|

e|---------------------------------------------------------------------------|
B|---------------------------------------------------------------------------|
G|---------------------------------------------------------------------------|
D|-7-7-7-7-7-7-7-7-7-7-7-7-7-7-7---------------------------------------------| 
A|-5-5-5-5-5-5-5-5-5-5-5-5-5-5-5---------------------------------------------|
E|---------------------------------------------------------------------------|

Verse 3:

e|---------------------------------------------------------------------------|
B|---------------------------------------------------------------------------|
G|---------------------------------------------------------------------------|
D|---------------------------------------------------------------------------|    x3
A|-/12-12-12-12-12-12-12-12-12-12-12-12-12-12--------------------------------|
E|-/10-10-10-10-10-10-10-10-10-10-10-10-10-10--------------------------------|

e|---------------------------------------------------------------------------|
B|---------------------------------------------------------------------------|
G|---------------------------------------------------------------------------|
D|---------------------------------------------------------------------------|    
A|-/11-11-11-11-11-11-11-11-11-11-11-11-11-11--------------------------------|
E|-/9--9--9--9--9--9--9--9--9--9--9--9--9--9---------------------------------|

e|---------------------------------------------------------------------------|
B|---------------------------------------------------------------------------|
G|---------------------------------------------------------------------------|
D|---------------------------------------------------------------------------|    
A|-/12-12-12-12-12-12-12-12-12-12-12-12-12-12--------------------------------|
E|-/10-10-10-10-10-10-10-10-10-10-10-10-10-10--------------------------------|

e|---------------------------------------------------------------------------|
B|---------------------------------------------------------------------------|
G|---------------------------------------------------------------------------|
D|---------------------------------------------------------------------------|    
A|-5-5-5-5-5-5-5-5-5-5-5-5-5-5-----------------------------------------------|
E|-3-3-3-3-3-3-3-3-3-3-3-3-3-3-----------------------------------------------|

Chorus 3: 

e|---------------------------------------------------------------------------|
B|---------------------------------------------------------------------------|
G|---------------------------------------------------------------------------|
D|----------------9-9-9-9-9-9-9-9--------------------------------------------| x3   
A|-7-7-7-7-7-7-7--7-7-7-7-7-7-7-7--------------------------------------------|
E|-5-5-5-5-5-5-5-------------------------------------------------------------|

e|---------------------------------------------------------------------------|
B|---------------------------------------------------------------------------|
G|---------------------------------------------------------------------------|
D|---------------------------------------------------------------------------| 
A|-7-7-7-7-7-7-7--9-9-9-9-9-9-9-9--------------------------------------------|
E|-5-5-5-5-5-5-5-/7-7-7-7-7-7-7-7--------------------------------------------|

Solo:

************************************

| x   Dead note
| g   Grace note
| (n) Ghost note
| h   Hammer-on
| p   Pull-off
| r   Release
| >   Accented note
| t   Tapping
| b   Bend
| br  Bend release
| pb  Pre-bend
| pbr Pre-bend release
| /   Slide up
| \   Slide down
| ~   Vibrato
| s   Slap
| P   Pop
| PM  Palm mute
| TR  Trill
| N   Tremolo

************************************
Suggest correction
Creating personal tab
Creating personal tab
You can edit any tab online and save it as your Personal.

You can edit, replace or remove any tab part or add personal notes – all changes will be seen only by you.

Personal tabs can be accessed anytime from any device, even offline.
Learn more »
Give kudos to tab author, rate the tab!
1 2 3 4 5
comments
print report bad tab
guest
Wanna post a correction for this tab? Suggest correction