Oops, an error
Loading. Please wait.

Feel Bass Tab

124 views 9 this week
no commentswrite comment
1 2 3 4 5
3 more votes to show rating
add to favorites
launch autoscroll
font size
0
reset
guitar tuner
Autoscroll
slow
fast
+/-
esc
set tempo
stop
Help us to improve Ultimate-Guitar.com Take our survey!
×
[Intro]

G|----------------------------------------------------------------------------------------------------------|
D|-2--------------2--------------2--------------2---------2h4-2--------------2------------------------------|
A|---4-4-4-4--4-4---4-4-4-4--4-4---4-4-4-4--4-4---4-4-4-4-------4-4-4-4--4-4---4-4-4-4--4-4-----2h4-4-4-4-4-|
E|------------------------------------------------------------------------------------------0h2-------------|

G|----------------------------------------------------------------------------------------------------------|
D|-2--------------2--------------2--------------2---------2h4-2--------------2------------------------------|
A|---4-4-4-4--4-4---4-4-4-4--4-4---4-4-4-4--4-4---4-4-4-4-------4-4-4-4--4-4---4-4-4-4--4-4-----2h4-4-4-4-4-|
E|------------------------------------------------------------------------------------------0h2-------------|

[Verse]

G|----------------------------------------------------------------|
D|-2--------------2--------------2--------------2-----------------|
A|---4-4-4-4--4-4---4-4-4-4--4-4---4-4-4-4--4-4---4-4-4-4--4-4----|
E|----------------------------------------------------------------|

G|-------------------------------------------------------|
D|---2-2--2-2-2---2-2--2-2-2-----------------------------|
A|-0------------0----------------------------------------|
E|---------------------------0-2-2--2-2--0-2-2--2-2------|

G|----------------------------------------------------------------|
D|-2--------------2--------------2--------------2-----------------|
A|---4-4-4-4--4-4---4-4-4-4--4-4---4-4-4-4--4-4---4-4-4-4--4-4----|
E|----------------------------------------------------------------|

G|-------------------------------------------------------|
D|---2-2--2-2-2---2-2--2-2-2-----------------------------|
A|-0------------0----------------------------------------|
E|---------------------------0-2-2--2-2--0-2-2--2-2------|

[Chorus]

G|----------------------------------------------------------------------------------------------------------|
D|-2--------------2--------------2--------------2---------2h4-2--------------2------------------------------|
A|---4-4-4-4--4-4---4-4-4-4--4-4---4-4-4-4--4-4---4-4-4-4-------4-4-4-4--4-4---4-4-4-4--4-4-----2h4-4-4-4-4-|
E|------------------------------------------------------------------------------------------0h2-------------|

G|----------------------------------------------------------------------------------------------------------|
D|-2--------------2--------------2--------------2---------2h4-2--------------2------------------------------|
A|---4-4-4-4--4-4---4-4-4-4--4-4---4-4-4-4--4-4---4-4-4-4-------4-4-4-4--4-4---4-4-4-4--4-4-----2h4-4-4-4-4-|
E|------------------------------------------------------------------------------------------0h2-------------|

[Verse]

G|----------------------------------------------------------------|
D|-2--------------2--------------2--------------2-----------------|
A|---4-4-4-4--4-4---4-4-4-4--4-4---4-4-4-4--4-4---4-4-4-4--4-4----|
E|----------------------------------------------------------------|

G|-------------------------------------------------------|
D|---2-2--2-2-2---2-2--2-2-2-----------------------------|
A|-0------------0----------------------------------------|
E|---------------------------0-2-2--2-2--0-2-2--2-2------|

G|----------------------------------------------------------------|
D|-2--------------2--------------2--------------2-----------------|
A|---4-4-4-4--4-4---4-4-4-4--4-4---4-4-4-4--4-4---4-4-4-4--4-4----|
E|----------------------------------------------------------------|

G|-------------------------------------------------------|
D|---2-2--2-2-2---2-2--2-2-2-----------------------------|
A|-0------------0----------------------------------------|
E|---------------------------0-2-2--2-2--0-2-2--2-2------|

[Bridge]

G|---------------------------------------------------------------------------|
D|---------------------------------------------------------------------------|
A|---------2-2-2-2---------2-2-2-2-------------------------------------------|
E|-0-0-0-0---------0-0-0-0---------0-0-0-0-2-2-2-2-4-4-4-4-4-4-4-4-----------|

[Chorus]

G|----------------------------------------------------------------------------------------------------------|
D|-2--------------2--------------2--------------2---------2h4-2--------------2------------------------------|
A|---4-4-4-4--4-4---4-4-4-4--4-4---4-4-4-4--4-4---4-4-4-4-------4-4-4-4--4-4---4-4-4-4--4-4-----2h4-4-4-4-4-|
E|------------------------------------------------------------------------------------------0h2-------------|

G|----------------------------------------------------------------------------------------------------------|
D|-2--------------2--------------2--------------2---------2h4-2--------------2------------------------------|
A|---4-4-4-4--4-4---4-4-4-4--4-4---4-4-4-4--4-4---4-4-4-4-------4-4-4-4--4-4---4-4-4-4--4-4-----2h4-4-4-4-4-|
E|------------------------------------------------------------------------------------------0h2-------------|

[Solo]

G|----------------------------------------------------------------------------------------------------------|
D|-2--------------2--------------2--------------2---------2h4-2--------------2------------------------------|
A|---4-4-4-4--4-4---4-4-4-4--4-4---4-4-4-4--4-4---4-4-4-4-------4-4-4-4--4-4---4-4-4-4--4-4-----2h4-4-4-4-4-|
E|------------------------------------------------------------------------------------------0h2-------------|

G|----------------------------------------------------------------------------------------------------------|
D|-2--------------2--------------2--------------2---------2h4-2--------------2------------------------------|
A|---4-4-4-4--4-4---4-4-4-4--4-4---4-4-4-4--4-4---4-4-4-4-------4-4-4-4--4-4---4-4-4-4--4-4-----2h4-4-4-4-4-|
E|------------------------------------------------------------------------------------------0h2-------------|

G|----------------------------------------------------------------|
D|-2--------------2--------------2--------------2-----------------|
A|---4-4-4-4--4-4---4-4-4-4--4-4---4-4-4-4--4-4---4-4-4-4--4-4----|
E|----------------------------------------------------------------|

G|-------------------------------------------------------|
D|---2-2--2-2-2---2-2--2-2-2-----------------------------|
A|-0------------0----------------------------------------|
E|---------------------------0-2-2--2-2--0-2-2--2-2------|

G|----------------------------------------------------------------|
D|-2--------------2--------------2--------------2-----------------|
A|---4-4-4-4--4-4---4-4-4-4--4-4---4-4-4-4--4-4---4-4-4-4--4-4----|
E|----------------------------------------------------------------|

G|-------------------------------------------------------|
D|---2-2--2-2-2---2-2--2-2-2-----------------------------|
A|-0------------0----------------------------------------|
E|---------------------------0-2-2--2-2--0-2-2--2-2------|

G|----------------------------------------------------------------------------------------------------------|
D|-2--------------2--------------2--------------2---------2h4-2--------------2------------------------------|
A|---4-4-4-4--4-4---4-4-4-4--4-4---4-4-4-4--4-4---4-4-4-4-------4-4-4-4--4-4---4-4-4-4--4-4-----2h4-4-4-4-4-|
E|------------------------------------------------------------------------------------------0h2-------------|

G|----------------------------------------------------------------------------------------------------------|
D|-2--------------2--------------2--------------2---------2h4-2--------------2------------------------------|
A|---4-4-4-4--4-4---4-4-4-4--4-4---4-4-4-4--4-4---4-4-4-4-------4-4-4-4--4-4---4-4-4-4--4-4-----2h4-4-4-4-4-|
E|------------------------------------------------------------------------------------------0h2-------------|

Outro

G|---------------------------------------------------------------------------------------| This is played 
D|-2--------------2--------------2--------------2---------2--------------2---------------| until the end
A|---4-4-4-4--4-4---4-4-4-4--4-4---4-4-4-4--4-4---4-4-4-4---4-4-4-4--4-4---4-4-4-4--4-4--| of the song
E|---------------------------------------------------------------------------------------|

| h   Hammer-on
Suggest correction
Give kudos to tab author, rate the tab!
1 2 3 4 5
comments
print report bad tab
guest
You may want to rate the tab now too:
select rating
Wanna post a correction for this tab? Suggest correction