Oops, an error
Loading. Please wait.

Finger Tab

17,379 views 111 this week
no commentswrite comment
1 2 3 4 5
x 12
add to favorites
launch autoscroll
font size
0
reset
how to read this tab
guitar tuner
Autoscroll
slow
fast
+/-
esc
set tempo
stop
Help us to improve Ultimate-Guitar.com Take our survey!
×
Author
Difficulty
novice
[Intro]
e|4-------4---4--4|4---4---4---4---| 
B|4-------4---4--4|6---4---4---4---|
G|5-------5---5--5|5---5---7---5---|
D|6-------6---6--6|6---6---6---6---|
A|6-------6---6--6|----------------|
E|4-------4---4--4|----------------|
                   (Finger on it)

e|7---7-----------|7---7-----------|
B|9---9---7---7---|9---9---7---7---|
G|9---9---8---8---|9---9---8---8---|
D|9---9---9---9---|9---9---9---9---|
A|7---7---9---9---|7---7---9---9---|
E|--------7---7---|--------7---7---|

e|4-------4---4--4|4---4---4---4---| 
B|4-------4---4--4|6---4---4---4---|
G|5-------5---5--5|5---5---7---5---|
D|6-------6---6--6|6---6---6---6---|
A|6-------6---6--6|----------------|
E|4-------4---4--4|----------------|
                   (Finger on it)

e|7---7-----------|7---7-----------|
B|9---9---7---7---|9---9---7---7---|
G|9---9---8---8---|9---9---8---8---|
D|9---9---9---9---|9---9---9---9---|
A|7---7---9---9---|7---7---9---9---|
E|--------7---7---|--------7---7---|

e|4-------4---4--4|3--3-3---3---3--3| 
B|4-------4---4--4|3--3-3---3---3--3|
G|5-------5---5--5|4--4-4---4---4--4|
D|6-------6---6--6|5--5-5---5---5--5|
A|6-------6---6--6|5--5-5---5---5--5|
E|4-------4---4--4|3--3-3---3---3--3|
  Ooooooohh
e|2--2-2---2---2--2|0---0---0---0--0|
B|4--4-4---4---4--4|0---0---0---0--0|
G|4--4-4---4---4--4|1---1---1---1--1|
D|4--4-4---4---4--4|2---2---2---2--2|
A|2--2-2---2---2--2|2---2---2---2--2|
E|2--2-2---2---2--2|0---0---0---0--0|

e|0--0-0---0---0--0|0---0---0---0--0|
B|0--0-0---0---0--0|0---0---0---0--0|
G|1--1-1---1---1--1|1---1---1---1--1|
D|2--2-2---2---2--2|2---2---2---2--2|
A|2--2-2---2---2--2|2---2---2---2--2|
E|0--0-0---0---0--0|0---0---0---0--0|

e|0---------------|
B|0---------------|
G|1---4---6---6---|
D|2---4---6---6---|
A|2---2---4---4---|
E|0---------------| (Play everything one more time)

[Verse]
e|----------------|----------------|----------------|----------------|
B|----------------|----------------|----------------|----------------|
G|----------------|----4---6---6---|----------------|----4---6---6---|
D|6-------6---6---|6---4---6---6---|6-------6---6---|6---4---6---6---|
A|6-------6---6---|6---2---4---4---|6-------6---6---|6---2---4---4---|
E|4-------4---4---|4---------------|4-------4---4---|4---------------|

e|----------------|----------------|----------------|----------------|
B|----------------|----------------|----------------|----------------|
G|----------------|----------------|----------------|----4---6---6---|
D|5-------5---5---|5---2---2---2---|6-------6---6---|6---4---6---6---|
A|5-------5---5---|5---2---2---2---|6-------6---6---|6---2---4---4---|
E|3-------3---3---|3---0---0---0---|4-------4---4---|4---------------|

Suggest correction
comments
print report bad tab
guest
You may want to rate the tab now too:
select rating
Wanna post a correction for this tab? Suggest correction