Oops, an error
Loading. Please wait.

Green Belly Bass Tab

13 views 3 this week
no commentswrite comment
1 2 3 4 5
3 more votes to show rating
add to favorites
launch autoscroll
font size
0
reset
guitar tuner
Autoscroll
slow
fast
+/-
esc
set tempo
stop
Help us to improve Ultimate-Guitar.com Take our survey!
×
[Intro]

G|-----------------------------------------|-----------------------------------------|
D|-----------------------------------------|-----------------------------------------|
A|-3-3-3-3-1-3-3-3-3-1-3-3-3-3-------3-3-1-|-3-3-3-3-1-3-3-3-3-1-3-3-3-3-------3-3-1-|
E|-----------------------------1-1-1-------|-----------------------------1-1-1-------|

[Verse]

G|-----------------------------------------|-----------------------------------------|
D|-----------------------------------------|-----------------------------------------|
A|-3-3-3-3-1-3-3-3-3-1-3-3-3-3-------3-3-1-|-3-3-3-3-1-3-3-3-3-1-3-3-3-3-------3-3-1-|
E|-----------------------------1-1-1-------|-----------------------------1-1-1-------|

[Chorus]

G|----------------------|------------------------|
D|----------------------|------------------------|
A|-1-1-1-------3-3-1-3--|-1-1-1-------3-3-3-1-3--|
E|-------1-1-1----------|-------1-1-1------------|

G|-------------------------------------------------|
D|-------------------------------------------------|
A|-1-1-1-------------------------------------------|
E|-------1-1-1-4-4-4-4-1-1-1-3-3-3-0-3-0-3-0-3-0---|

[Verse]

G|-----------------------------------------|-----------------------------------------|
D|-----------------------------------------|-----------------------------------------|
A|-3-3-3-3-1-3-3-3-3-1-3-3-3-3-------3-3-1-|-3-3-3-3-1-3-3-3-3-1-3-3-3-3-------3-3-1-|
E|-----------------------------1-1-1-------|-----------------------------1-1-1-------|

[Chorus]

G|----------------------|------------------------|
D|----------------------|------------------------|
A|-1-1-1-------3-3-1-3--|-1-1-1-------3-3-3-1-3--|
E|-------1-1-1----------|-------1-1-1------------|

G|-------------------------------------------------|
D|-------------------------------------------------|
A|-1-1-1-------------------------------------------|
E|-------1-1-1-4-4-4-4-1-1-1-3-3-3-0-3-0-3-0-3-0---|

[Bridge]

G|-----------------------------------------|-----------------------------------------|
D|-----------------------------------------|-----------------------------------------|
A|-3-3-3-3-1-3-3-3-3-1-3-3-3-3-------3-3-1-|-3-3-3-3-1-3-3-3-3-1-3-3-3-3-------3-3-1-|
E|-----------------------------1-1-1-------|-----------------------------1-1-1-------|

G|----------------------|------------------------|
D|----------------------|------------------------|
A|-1-1-1-------3-3-1-3--|-1-1-1-------3-3-3-1-3--|
E|-------1-1-1----------|-------1-1-1------------|

G|-------------------------------------------------|
D|-------------------------------------------------|
A|-1-1-1-------------------------------------------|
E|-------1-1-1-4-4-4-4-1-1-1-3-3-3-0-3-0-3-0-3-0---|

[Outro]

G|-----------------------------------------|-----------------------------------------|
D|-----------------------------------------|-----------------------------------------|
A|-3-3-3-3-1-3-3-3-3-1-3-3-3-3-------3-3-1-|-3-3-3-3-1-3-3-3-3-1-3-3-3-3-------3-3-1-|
E|-----------------------------1-1-1-------|-----------------------------1-1-1-------|


G|----------------------|------------------------|
D|----------------------|------------------------|
A|-1-1-1-------3-3-1-3--|-1-1-1-------3-3-3-1-3--|
E|-------1-1-1----------|-------1-1-1------------|

G|-------------------------------------------------|
D|-------------------------------------------------|
A|-1-1-1-----------------------------------------3-|
E|-------1-1-1-4-4-4-4-1-1-1-3-3-3-0-3-0-3-0-3-0---|

Suggest correction
Give kudos to tab author, rate the tab!
1 2 3 4 5
comments
print report bad tab
guest
You may want to rate the tab now too:
select rating
Wanna post a correction for this tab? Suggest correction