Oops, an error
Loading. Please wait.

Melted Bass Tab

55 views 9 this week
no commentswrite comment
1 2 3 4 5
3 more votes to show rating
add to favorites
launch autoscroll
font size
0
reset
guitar tuner
Autoscroll
slow
fast
+/-
esc
set tempo
stop
Help us to improve Ultimate-Guitar.com Take our survey!
×
Author
Tuning
D A D G B E
[Intro]

G|------------------------------|-----------------------------------|
D|------------------------------|-----------------------------------|
A|---------3-3-3-2-1-1-1--------|---------3-3-3-2-1-1-1-------------|
D|-1-1-1-3---------------3-5-8\-|-1-1-1-3---------------3-5-8\------|


[Verse]

G|------------------------------|-----------------------------------|
D|------------------------------|-----------------------------------|
A|---------3-3-3-2-1-1-1--------|---------3-3-3-2-1-1-1-------------|
D|-1-1-1-3---------------3-5-8\-|-1-1-1-3---------------3-5-8\------|

G|------------------------------|-----------------------------------|
D|------------------------------|-----------------------------------|
A|---------3-3-3-2-1-1-1--------|---------3-3-3-2-1-1-1-1-----------|
D|-1-1-1-3---------------3-5-8\-|-1-1-1-3---------------------------|

G|------------------------------|-----------------------------------|
D|------------------------------|-----------------------------------|
A|---------3-3-3-2-1-1-1--------|---------3-3-3-2-1-1-1-------------|
D|-1-1-1-3---------------3-5-8\-|-1-1-1-3---------------3-5-8\------|

G|------------------------------|-----------------------------------|
D|------------------------------|-----------------------------------|
A|---------3-3-3-2-1-1-1--------|---------3-3-3-2-1-1-1-------------|
D|-1-1-1-3---------------3-5-8\-|-1-1-1-3---------------5-3---------|

[Chorus]

G|--------------------------------|---------------------------------|
D|--------------------------------|---------------------------------|
A|-2-2-2-2------------------------|-2-2-2-2-------------------------|
D|---------6-6-6-6-1-1-1-1-4-4-4-4|---------6-6-6-6-1-1-1-1-4-4-4-4-|

G|--------------------------------|---------------------------------|
D|--------------------------------|---------------------------------|
A|-2-2-2-2------------------------|-2-2-2-2-------------------------|
D|---------6-6-6-6-1-1-1-1-4-4-4-4|---------6-6-6-6-1---------------|

[Outro]

G|------------------------------|-----------------------------------|
D|------------------------------|-----------------------------------|
A|---------3-3-3-2-1-1-1--------|---------3-3-3-2-1-1-1-------------|
D|-1-1-1-3---------------3-5-8\-|-1-1-1-3---------------3-5-8\------|

G|------------------------------|-----------------------------------|
D|------------------------------|-----------------------------------|
A|---------3-3-3-2-1-1-1--------|---------3-3-3-2-1-----------------|
D|-1-1-1-3---------------3-5-8\-|-1-1-1-3---------------------------|

************************************

| \   Slide down
Suggest correction
Give kudos to tab author, rate the tab!
1 2 3 4 5
comments
print report bad tab
guest
You may want to rate the tab now too:
select rating
Wanna post a correction for this tab? Suggest correction