Oops, an error
Loading. Please wait.

Mister Main Bass Tab

22 views 6 this week
no commentswrite comment
1 2 3 4 5
3 more votes to show rating
add to favorites
launch autoscroll
font size
0
reset
guitar tuner
Autoscroll
slow
fast
+/-
esc
set tempo
stop
Help us to improve Ultimate-Guitar.com Take our survey!
×
[Intro]

G|-7h9-7h9-7h9-----7h9-7h9-7h9-----|-7h9-7h9-7h9-----7h9-7h9-7h9--------------|
D|-------------7-8-------------7-8-|-------------7-8-------------7-8----------|
A|---------------------------------|------------------------------------------|
E|---------------------------------|------------------------------------------|

G|-7h9-7h9-7h9-----7h9-7h9-7h9-----|-7h9-7h9-7h9-----7h9-7h9-7h9--------------|
D|-------------7-8-------------7-8-|-------------7-8-------------7-8----------|
A|---------------------------------|------------------------------------------|
E|---------------------------------|------------------------------------------|

[Verse]

G|-7h9-7h9-7h9-----7h9-7h9-7h9-----|-7h9-7h9-7h9-----7h9-7h9-7h9--------------|
D|-------------7-8-------------7-8-|-------------7-8-------------7-8----------|
A|---------------------------------|------------------------------------------|
E|---------------------------------|------------------------------------------|

G|-7h9-7h9-7h9-----7h9-7h9-7h9-----|-7h9-7h9-7h9-----7h9-7h9-7h9--------------|
D|-------------7-8-------------7-8-|-------------7-8-------------7-8----------|
A|---------------------------------|------------------------------------------|
E|---------------------------------|------------------------------------------|

[Chorus]

G|-------------------------------------|
D|-------------------------------------|
A|-------------------------------------|
E|-3--3-3--3--3-3--3--3-3--3--3-3-3-2--|

G|-7h9-7h9-7h9-----7h9-7h9-7h9-----|-7h9-7h9-7h9-----7h9-7h9-7h9--------------|
D|-------------7-8-------------7-8-|-------------7-8-------------7-8----------|
A|---------------------------------|------------------------------------------|
E|---------------------------------|------------------------------------------|

G|-7h9-7h9-7h9-----7h9-7h9-7h9-----|-7h9-7h9-7h9-----7h9-7h9-7h9--------------|
D|-------------7-8-------------7-8-|-------------7-8-------------7-8----------|
A|---------------------------------|------------------------------------------|
E|---------------------------------|------------------------------------------|

[Verse]

G|-7h9-7h9-7h9-----7h9-7h9-7h9-----|-7h9-7h9-7h9-----7h9-7h9-7h9--------------|
D|-------------7-8-------------7-8-|-------------7-8-------------7-8----------|
A|---------------------------------|------------------------------------------|
E|---------------------------------|------------------------------------------|

G|-7h9-7h9-7h9-----7h9-7h9-7h9-----|-7h9-7h9-7h9-----7h9-7h9-7h9--------------|
D|-------------7-8-------------7-8-|-------------7-8-------------7-8----------|
A|---------------------------------|------------------------------------------|
E|---------------------------------|------------------------------------------|

[Chorus]

G|-------------------------------------|
D|-------------------------------------|
A|-------------------------------------|
E|-3--3-3--3--3-3--3--3-3--3--3-3-3-2--|

[Bridge]

G|-7h9-7h9-7h9-----7h9-7h9-7h9-----|-7h9-7h9-7h9-----7h9-7h9-7h9--------------|
D|-------------7-8-------------7-8-|-------------7-8-------------7-8----------|
A|---------------------------------|------------------------------------------|
E|---------------------------------|------------------------------------------|

G|-------------------------------------|
D|-------------------------------------|
A|-------------------------------------|
E|-3--3-3--3--3-3--3--3-3--3--3-3-3-2--|

G|-------------------------------------|
D|-------------------------------------|
A|-------------------------------------|
E|-3--3-3--3--3-3--3--3-3--3--3-3-3-2--|

G|-------------------------------------|
D|-------------------------------------|
A|-------------------------------------|
E|-3--3-3--3--3-3--3--3-3--3--3-3-3-2--|

G|-------------------------------------|
D|-------------------------------------|
A|-------------------------------------|
E|-3--3-3--3--3-3--3--3-3--3--3-3-3-2--|

[Outro]

G|-7h9-7h9-7h9-----7h9-7h9-7h9-----|-7h9-7h9-7h9-----7h9-7h9-7h9--------------|
D|-------------7-8-------------7-8-|-------------7-8-------------7-8----------|
A|---------------------------------|------------------------------------------|
E|---------------------------------|------------------------------------------|

G|-7h9-7h9-7h9-----7h9-7h9-7h9-----|-7h9-7h9-7h9-----7h9-7h9-7h9--------------|
D|-------------7-8-------------7-8-|-------------7-8-------------7-8----------|
A|---------------------------------|------------------------------------------|
E|---------------------------------|------------------------------------------|



************************************

| h   Hammer-on
Suggest correction
Give kudos to tab author, rate the tab!
1 2 3 4 5
comments
print report bad tab
guest
You may want to rate the tab now too:
select rating
Wanna post a correction for this tab? Suggest correction