Oops, an error
Loading. Please wait.

My Sunshine Bass Tab

46 views 9 this week
no commentswrite comment
1 2 3 4 5
3 more votes to show rating
add to favorites
launch autoscroll
font size
0
reset
guitar tuner
Autoscroll
slow
fast
+/-
esc
set tempo
stop
Help us to improve Ultimate-Guitar.com Take our survey!
×
[Intro]

G|----------------------------------------------|---------------------------------------------|
D|----------------------------------------------|---------------------------------------------|
A|-------------------2-2-2-2--------------------|-------------------2-2-2-2-------------------|
E|-0--0-3-5--5-5-3-3----------0--0-3-5--5-5-3-3-|-0--0-3-5--5-5-3-3---------0--0-3-5--5-5-3-3-|

[Verse]

G|----------------------------------------------|---------------------------------------------|
D|----------------------------------------------|---------------------------------------------|
A|-------------------2-2-2-2--------------------|-------------------2-2-2-2-------------------|
E|-0--0-3-5--5-5-3-3----------0--0-3-5--5-5-3-3-|-0--0-3-5--5-5-3-3---------0--0-3-5--5-5-3-3-|

[Chorus]

G|-----------------------|---------------------------|
D|-----------------------|---------------------------|
A|---------------5-5-----|-------------------2-2-2-2-|
E|-0-0-0-0-0-0-0-----5-5-|-0--0-3-5--5-5-3-3---------|

[Verse]

G|----------------------------------------------|---------------------------------------------|
D|----------------------------------------------|---------------------------------------------|
A|-------------------2-2-2-2--------------------|-------------------2-2-2-2-------------------|
E|-0--0-3-5--5-5-3-3----------0--0-3-5--5-5-3-3-|-0--0-3-5--5-5-3-3---------0--0-3-5--5-5-3-3-|

[Chorus]

G|-----------------------|---------------------------|
D|-----------------------|---------------------------|
A|---------------5-5-----|-------------------2-2-2-2-|
E|-0-0-0-0-0-0-0-----5-5-|-0--0-3-5--5-5-3-3---------|

G|--------------------------------------------------|
D|--------------------------------------------------|
A|--------------------------------------------------|
E|-5-5-5-5-5-5-5-5-5-5-5-5-5-5-5-5-5-5-5-5-5-5-5-5--|

G|----------------------------------------------|---------------------------------------------|
D|----------------------------------------------|---------------------------------------------|
A|-------------------2-2-2-2--------------------|-------------------2-2-2-2-------------------|
E|-0--0-3-5--5-5-3-3----------0--0-3-5--5-5-3-3-|-0--0-3-5--5-5-3-3---------0--0-3-5--5-5-3-3-|

[Verse]

G|----------------------------------------------|---------------------------------------------|
D|----------------------------------------------|---------------------------------------------|
A|-------------------2-2-2-2--------------------|-------------------2-2-2-2-------------------|
E|-0--0-3-5--5-5-3-3----------0--0-3-5--5-5-3-3-|-0--0-3-5--5-5-3-3---------0--0-3-5--5-5-3-3-|


[Chorus]

G|-----------------------|---------------------------|
D|-----------------------|---------------------------|
A|---------------5-5-----|-------------------2-2-2-2-|
E|-0-0-0-0-0-0-0-----5-5-|-0--0-3-5--5-5-3-3---------|


[Verse]

G|----------------------------------------------|---------------------------------------------|
D|----------------------------------------------|---------------------------------------------|
A|-------------------2-2-2-2--------------------|-------------------2-2-2-2-------------------|
E|-0--0-3-5--5-5-3-3----------0--0-3-5--5-5-3-3-|-0--0-3-5--5-5-3-3---------0--0-3-5--5-5-3-3-|

[Chorus]

G|-----------------------|---------------------------|
D|-----------------------|---------------------------|
A|---------------5-5-----|-------------------2-2-2-2-|
E|-0-0-0-0-0-0-0-----5-5-|-0--0-3-5--5-5-3-3---------|

G|--------------------------------------------------|
D|--------------------------------------------------|
A|--------------------------------------------------|
E|-5-5-5-5-5-5-5-5-5-5-5-5-5-5-5-5-5-5-5-5-5-5-5-5--|


[Outro]


G|----------------------------------------------|---------------------------------------------|
D|----------------------------------------------|---------------------------------------------|
A|-------------------2-2-2-2--------------------|-------------------2-2-2-2-------------------|
E|-0--0-3-5--5-5-3-3----------0--0-3-5--5-5-3-3-|-0--0-3-5--5-5-3-3---------0--0-3-5--5-5-3-3-|


G|----------------------------------------------|---------------------------------------------|
D|----------------------------------------------|---------------------------------------------|
A|-------------------2-2-2-2--------------------|-------------------2-2-2-2-------------------|
E|-0--0-3-5--5-5-3-3----------0--0-3-5--5-5-3-3-|-0--0-3-5--5-5-3-3---------0--0-3-5--5-5-3-3-|


G|----------------------------------------------|---------------------------------------------|
D|----------------------------------------------|---------------------------------------------|
A|-------------------2-2-2-2--------------------|-------------------2-2-2-2-------------------|
E|-0--0-3-5--5-5-3-3----------0--0-3-5--5-5-3-3-|-0--0-3-5--5-5-3-3---------0--0-3-5--5-5-3-3-|


G|----------------------------------------------|-----------------------------------------------|
D|----------------------------------------------|-----------------------------------------------|
A|-------------------2-2-2-2--------------------|-------------------2-2-2-2---------------------|
E|-0--0-3-5--5-5-3-3----------0--0-3-5--5-5-3-3-|-0--0-3-5--5-5-3-3---------0--0-3-5--5-5-3-3-0-|
Suggest correction
Give kudos to tab author, rate the tab!
1 2 3 4 5
comments
print report bad tab
guest
You may want to rate the tab now too:
select rating
Wanna post a correction for this tab? Suggest correction