Oops, an error
Loading. Please wait.

My Sunshine Tab

85 views 9 this week
no commentswrite comment
1 2 3 4 5
2 more votes to show rating
add to favorites
launch autoscroll
font size
0
reset
how to read this tab
guitar tuner
Autoscroll
slow
fast
+/-
esc
set tempo
stop
Help us to improve Ultimate-Guitar.com Take our survey!
×
[Intro]

e|---------------------------------------------------------------|
B|---------------------------------------------------------------|
G|-------------------4-4-4-4--------------------4-4-4-4----------|
D|-2--2-5-7--7-7-5-5-4-4-4-4--2--2-5-7--7-7-5-5-4-4-4-4----------|
A|-2--2-5-7--7-7-5-5-2-2-2-2--2--2-5-7--7-7-5-5-2-2-2-2----------|
E|-0--0-3-5--5-5-3-3----------0--0-3-5--5-5-3-3------------------|

e|----------------------------|
B|----------------------------|
G|-------------------4-4-4-4--|
D|-2--2-5-7--7-7-5-5-4-4-4-4--|
A|-2--2-5-7--7-7-5-5-2-2-2-2--|
E|-0--0-3-5--5-5-3-3----------|

[Verse]

e|---------------------------------------------------------------|
B|---------------------------------------------------------------|
G|-------------------4-4-4-4--------------------4-4-4-4----------|
D|-2--2-5-7--7-7-5-5-4-4-4-4--2--2-5-7--7-7-5-5-4-4-4-4----------|
A|-2--2-5-7--7-7-5-5-2-2-2-2--2--2-5-7--7-7-5-5-2-2-2-2----------|
E|-0--0-3-5--5-5-3-3----------0--0-3-5--5-5-3-3------------------|

[Chorus]

e|-----------------------|
B|-----------------------|
G|-------------7-7-------|
D|-2-2-2-2-2-2-7-7-7-7---|
A|-2-2-2-2-2-2-5-5-7-7---|
E|-0-0-0-0-0-0-----5-5---|

e|----------------------------|
B|----------------------------|
G|-------------------4-4-4-4--|
D|-2--2-5-7--7-7-5-5-4-4-4-4--|
A|-2--2-5-7--7-7-5-5-2-2-2-2--|
E|-0--0-3-5--5-5-3-3----------|

[Verse]

e|---------------------------------------------------------------|
B|---------------------------------------------------------------|
G|-------------------4-4-4-4--------------------4-4-4-4----------|
D|-2--2-5-7--7-7-5-5-4-4-4-4--2--2-5-7--7-7-5-5-4-4-4-4----------|
A|-2--2-5-7--7-7-5-5-2-2-2-2--2--2-5-7--7-7-5-5-2-2-2-2----------|
E|-0--0-3-5--5-5-3-3----------0--0-3-5--5-5-3-3------------------|

[Chorus]

e|-----------------------|
B|-----------------------|
G|-------------7-7-------|
D|-2-2-2-2-2-2-7-7-7-7---|
A|-2-2-2-2-2-2-5-5-7-7---|
E|-0-0-0-0-0-0-----5-5---|

e|----------------------------|
B|----------------------------|
G|-------------------4-4-4-4--|
D|-2--2-5-7--7-7-5-5-4-4-4-4--|
A|-2--2-5-7--7-7-5-5-2-2-2-2--|
E|-0--0-3-5--5-5-3-3----------|

e|-----------------------------------------|
B|-----------------------------------------|
G|-----------------------------------------|
D|-7-7-7-7-7-7-7-7-7-7-7-7-7-7-7-7-7-7-7-7-|
A|-7-7-7-7-7-7-7-7-7-7-7-7-7-7-7-7-7-7-7-7-|
E|-5-5-5-5-5-5-5-5-5-5-5-5-5-5-5-5-5-5-5-5-|

e|---------------------------------------------------------------|
B|---------------------------------------------------------------|
G|-------------------4-4-4-4--------------------4-4-4-4----------|
D|-2--2-5-7--7-7-5-5-4-4-4-4--2--2-5-7--7-7-5-5-4-4-4-4----------|
A|-2--2-5-7--7-7-5-5-2-2-2-2--2--2-5-7--7-7-5-5-2-2-2-2----------|
E|-0--0-3-5--5-5-3-3----------0--0-3-5--5-5-3-3------------------|

[Verse]

e|---------------------------------------------------------------|
B|---------------------------------------------------------------|
G|-------------------4-4-4-4--------------------4-4-4-4----------|
D|-2--2-5-7--7-7-5-5-4-4-4-4--2--2-5-7--7-7-5-5-4-4-4-4----------|
A|-2--2-5-7--7-7-5-5-2-2-2-2--2--2-5-7--7-7-5-5-2-2-2-2----------|
E|-0--0-3-5--5-5-3-3----------0--0-3-5--5-5-3-3------------------|

[Chorus]

e|-----------------------|
B|-----------------------|
G|-------------7-7-------|
D|-2-2-2-2-2-2-7-7-7-7---|
A|-2-2-2-2-2-2-5-5-7-7---|
E|-0-0-0-0-0-0-----5-5---|

e|----------------------------|
B|----------------------------|
G|-------------------4-4-4-4--|
D|-2--2-5-7--7-7-5-5-4-4-4-4--|
A|-2--2-5-7--7-7-5-5-2-2-2-2--|
E|-0--0-3-5--5-5-3-3----------|

[Verse]

e|---------------------------------------------------------------|
B|---------------------------------------------------------------|
G|-------------------4-4-4-4--------------------4-4-4-4----------|
D|-2--2-5-7--7-7-5-5-4-4-4-4--2--2-5-7--7-7-5-5-4-4-4-4----------|
A|-2--2-5-7--7-7-5-5-2-2-2-2--2--2-5-7--7-7-5-5-2-2-2-2----------|
E|-0--0-3-5--5-5-3-3----------0--0-3-5--5-5-3-3------------------|

[Chorus]

e|-----------------------|
B|-----------------------|
G|-------------7-7-------|
D|-2-2-2-2-2-2-7-7-7-7---|
A|-2-2-2-2-2-2-5-5-7-7---|
E|-0-0-0-0-0-0-----5-5---|

e|----------------------------|
B|----------------------------|
G|-------------------4-4-4-4--|
D|-2--2-5-7--7-7-5-5-4-4-4-4--|
A|-2--2-5-7--7-7-5-5-2-2-2-2--|
E|-0--0-3-5--5-5-3-3----------|

e|-----------------------------------------|
B|-----------------------------------------|
G|-----------------------------------------|
D|-7-7-7-7-7-7-7-7-7-7-7-7-7-7-7-7-7-7-7-7-|
A|-7-7-7-7-7-7-7-7-7-7-7-7-7-7-7-7-7-7-7-7-|
E|-5-5-5-5-5-5-5-5-5-5-5-5-5-5-5-5-5-5-5-5-|

[Outro/Solo]

e|---------------------------------------------------------------|
B|---------------------------------------------------------------|
G|-------------------4-4-4-4--------------------4-4-4-4----------|
D|-2--2-5-7--7-7-5-5-4-4-4-4--2--2-5-7--7-7-5-5-4-4-4-4----------|
A|-2--2-5-7--7-7-5-5-2-2-2-2--2--2-5-7--7-7-5-5-2-2-2-2----------|
E|-0--0-3-5--5-5-3-3----------0--0-3-5--5-5-3-3------------------|

e|---------------------------------------------------------------|
B|---------------------------------------------------------------|
G|-------------------4-4-4-4--------------------4-4-4-4----------|
D|-2--2-5-7--7-7-5-5-4-4-4-4--2--2-5-7--7-7-5-5-4-4-4-4----------|
A|-2--2-5-7--7-7-5-5-2-2-2-2--2--2-5-7--7-7-5-5-2-2-2-2----------|
E|-0--0-3-5--5-5-3-3----------0--0-3-5--5-5-3-3------------------|

e|---------------------------------------------------------------|
B|---------------------------------------------------------------|
G|-------------------4-4-4-4--------------------4-4-4-4----------|
D|-2--2-5-7--7-7-5-5-4-4-4-4--2--2-5-7--7-7-5-5-4-4-4-4----------|
A|-2--2-5-7--7-7-5-5-2-2-2-2--2--2-5-7--7-7-5-5-2-2-2-2----------|
E|-0--0-3-5--5-5-3-3----------0--0-3-5--5-5-3-3------------------|

e|---------------------------------------------------------------|
B|---------------------------------------------------------------|
G|-------------------4-4-4-4--------------------4-4-4-4----------|
D|-2--2-5-7--7-7-5-5-4-4-4-4--2--2-5-7--7-7-5-5-4-4-4-4-2--------|
A|-2--2-5-7--7-7-5-5-2-2-2-2--2--2-5-7--7-7-5-5-2-2-2-2-2--------|
E|-0--0-3-5--5-5-3-3----------0--0-3-5--5-5-3-3---------0--------|


Suggest correction
Give kudos to tab author, rate the tab!
1 2 3 4 5
comments
print report bad tab
guest
You may want to rate the tab now too:
select rating
Wanna post a correction for this tab? Suggest correction