Oops, an error
Loading. Please wait.

Oh Mary tab

454 views 39 this week
no commentswrite comment
1 2 3 4 5
1 last vote to show rating
add to favorites
×
Save as Personal and add changes to this tab that will be seen only by you. Learn more ›
×
You can save this tab as Personal to edit and correct it or add notes. All changes will be seen only by you. Learn more »
launch autoscroll
font size
0
reset
how to read this tab
guitar tuner
edit
Autoscroll
slow
fast
+/-
esc
set tempo
stop
Author
Difficulty
About this tab version
This is the version from Ty Segall (2008) not the version from Slaughterhouse (2012). Was this info helpful? Yes No
4Tabbed by J

This is the Version from the Ty Segall (2008) self titled album, the version on Slaughterhouse (2012) is 
played one half step higher so G# becomes A and so on

[Verse]

Play the B note on the seventh fret with your pinky while still holding the power chord for ultra fast speed
e|-------------------------------------------------------------------------|
B|-------------------------------------------------------------------------|
G|-------------------------------------------------------------------------|
D|-------------------------------------------------------------------2-2-2-|
A|-6-6---6-6-6---6-6-6---6-6-6---6-6-6---6-6-6---6-6-6---6-6-6---6-6-2-2-2-|
E|-4-4-7-4-4-4-7-4-4-4-7-4-4-4-7-4-4-4-7-4-4-4-7-4-4-4-7-4-4-4-7-4-4-0-0-0-|

e|-----------------------------------------------|
B|-----------------------------------------------|
G|9-9-9-9--6-6-6-6-------------------------------|
D|9-9-9-9--6-6-6-6-------------------------------|
A|7-7-7-7--4-4-4-4-6-6---6-6-6---6-6-6---6-6-6---|
E|-----------------4-4-7-4-4-4-7-4-4-4-7-4-4-4-7-|


[Chorus]

e|----------------------------------------|
B|----------------------------------------|
G|6-6--9-9--------------------------------|
D|6-6--9-9--------------------------------|
A|4-4--7-7--6-6---6-6-6---6-6-6---6-6-6---|
E|----------4-4-7-4-4-4-7-4-4-4-7-4-4-4-7-|


            
            
Suggest correction
Creating personal tab
Creating personal tab
You can edit any tab online and save it as your Personal.

You can edit, replace or remove any tab part or add personal notes – all changes will be seen only by you.

Personal tabs can be accessed anytime from any device, even offline.
Learn more »
Give kudos to tab author, rate the tab!
1 2 3 4 5
comments
print report bad tab
guest
You may want to rate the tab now too:
select rating
Wanna post a correction for this tab? Suggest correction