Oops, an error
Loading. Please wait.

Squealer Bass Tab

37 views 6 this week
no commentswrite comment
1 2 3 4 5
3 more votes to show rating
add to favorites
launch autoscroll
font size
0
reset
guitar tuner
Autoscroll
slow
fast
+/-
esc
set tempo
stop
Help us to improve Ultimate-Guitar.com Take our survey!
×
[Intro]

G|-----------------------------------------------------------------|
D|-----------------------------------------------------------------|
A|-3--3--3-3--3--3--3-3-----1-3--3--3--3-3--3--3--3-3-----1-3------|
E|----------------------1-3---------------------------1-3----------|

G|--------------6-5----3-2---------------6-5----3-2----|
D|---3--------6------3--------3--------6------3--------|
A|-3---3-3-1----------------3---3-3-1------------------|
E|-----------------------------------------------------|

G|--------------6-5----3-2---------------6-5----3-2----|
D|---3--------6------3--------3--------6------3--------|
A|-3---3-3-1----------------3---3-3-1------------------|
E|-----------------------------------------------------|

[Verse]

G|--------------6-5----3-2---------------6-5----3-2----|
D|---3--------6------3--------3--------6------3--------|
A|-3---3-3-1----------------3---3-3-1------------------|
E|-----------------------------------------------------|

G|--------------6-5----3-2---------------6-5----3-2----|
D|---3--------6------3--------3--------6------3--------|
A|-3---3-3-1----------------3---3-3-1------------------|
E|-----------------------------------------------------|

G|--------------6-5----3-2---------------6-5----3-2----|
D|---3--------6------3--------3--------6------3--------|
A|-3---3-3-1----------------3---3-3-1------------------|
E|-----------------------------------------------------|

G|--------------6-5----3-2---------------6-5----3-2----|
D|---3--------6------3--------3--------6------3--------|
A|-3---3-3-1----------------3---3-3-1------------------|
E|-----------------------------------------------------|

[Chorus]

G|---------------------------------------------------------------------------|
D|---------------------------------------------------------------------------|
A|---------------------------------------------------------------------------|
E|-6-6-6-6-6-6-6-6-6-6-6-6-6-6-6--4-4-4-4-4-4-4-4-4-4-4-4-4-4-4-4------------|

G|---------------------------------------------------------------------------|
D|---------------------------------------------------------------------------|
A|--------------------------------6-6-6-6-6-6-6-6-6-6-6-6-6-6-6-6------------|
E|-1-1-1-1-1-1-1-1-1-1-1-1-1-1-1---------------------------------------------|

[Solo]

G|--------------6-5----3-2---------------6-5----3-2----|
D|---3--------6------3--------3--------6------3--------|
A|-3---3-3-1----------------3---3-3-1------------------|
E|-----------------------------------------------------|

G|--------------6-5----3-2---------------6-5----3-2----|
D|---3--------6------3--------3--------6------3--------|
A|-3---3-3-1----------------3---3-3-1------------------|
E|-----------------------------------------------------|

[Verse]

G|--------------6-5----3-2---------------6-5----3-2----|
D|---3--------6------3--------3--------6------3--------|
A|-3---3-3-1----------------3---3-3-1------------------|
E|-----------------------------------------------------|

G|--------------6-5----3-2---------------6-5----3-2----|
D|---3--------6------3--------3--------6------3--------|
A|-3---3-3-1----------------3---3-3-1------------------|
E|-----------------------------------------------------|

[Chorus]

G|---------------------------------------------------------------------------|
D|---------------------------------------------------------------------------|
A|---------------------------------------------------------------------------|
E|-6-6-6-6-6-6-6-6-6-6-6-6-6-6-6--4-4-4-4-4-4-4-4-4-4-4-4-4-4-4-4------------|

G|---------------------------------------------------------------------------|
D|---------------------------------------------------------------------------|
A|--------------------------------6-6-6-6-6-6-6-6-6-6-6-6-6-6-6-6------------|
E|-1-1-1-1-1-1-1-1-1-1-1-1-1-1-1---------------------------------------------|


[Solo]

G|--------------6-5----3-2---------------6-5----3-2----|
D|---3--------6------3--------3--------6------3--------|
A|-3---3-3-1----------------3---3-3-1------------------|
E|-----------------------------------------------------|

G|--------------6-5----3-2---------------6-5----3-2----|
D|---3--------6------3--------3--------6------3--------|
A|-3---3-3-1----------------3---3-3-1------------------|
E|-----------------------------------------------------|

G|--------------6-5----3-2---------------6-5----3-2----|
D|---3--------6------3--------3--------6------3--------|
A|-3---3-3-1----------------3---3-3-1------------------|
E|-----------------------------------------------------|

G|--------------6-5----3-2---------------6-5----3-2----|
D|---3--------6------3--------3--------6------3--------|
A|-3---3-3-1----------------3---3-3-1------------------|
E|-----------------------------------------------------|

G|--------------6-5----3-2---------------6-5----3-2----|
D|---3--------6------3--------3--------6------3--------|
A|-3---3-3-1----------------3---3-3-1------------------|
E|-----------------------------------------------------|

G|--------------6-5----3-2---------------6-5----3-2----|
D|---3--------6------3--------3--------6------3--------|
A|-3---3-3-1----------------3---3-3-1---------------3--|
E|-----------------------------------------------------|

Suggest correction
Give kudos to tab author, rate the tab!
1 2 3 4 5
comments
print report bad tab
guest
You may want to rate the tab now too:
select rating
Wanna post a correction for this tab? Suggest correction