Oops, an error
Loading. Please wait.

Susie Thumb Bass Tab

19 views 3 this week
no commentswrite comment
1 2 3 4 5
3 more votes to show rating
add to favorites
launch autoscroll
font size
0
reset
guitar tuner
Autoscroll
slow
fast
+/-
esc
set tempo
stop
Help us to improve Ultimate-Guitar.com Take our survey!
×
[Intro]

G|--------------------------------------------------------------------|
D|--------------------------------------------------------------------|
A|-7-7----------------------------2-2-2-2-----------------------------|
E|-----7-7-7-7-9-9-9-9-7-9-7--0-0---------4-4-4-4-2-4-2---------------|

G|-------------------------------------------------------------------|
D|-------------------------------------------------------------------|
A|-7-7----------------------------2-2-2-2----------------------------|
E|-----7-7-7-7-9-9-9-9-7-9-7--0-0---------2-4-2-4-2-4-2--------------|

[Verse]

G|-------------------------------------------------------------------|
D|-------------------------------------------------------------------|
A|-7-7----------------------------2-2-2-2----------------------------|
E|-----7-7-7-7-9-9-9-9-7-9-7--0-0---------4-4-4-4-2-4-2--------------|

G|---------------------------------------------------------------------------|
D|---------------------------------------------------------------------------|
A|-7-7----------------------------2-2-2-2------------------------------------|
E|-----7-7-7-7-9-9-9-9-7-9-7--0-0---------2-4-2-4-2-4-2----------------------|

[Chorus]

G|---------------9-----------------------------------------------9-------------------------------|
D|-------------7-----------------------------------------------7---------------------------------|
A|-9-9-------7----------9-9------------------------9-9-------7---------9-9-----------------------|
E|-----9-9-9-------7-7------9-9-9--4-2-4-2-4-2-4-2-----9-9-9-------7-7-----9-9-9-4-2-4-2-4-2-4-2-|

[Verse]

G|-------------------------------------------------------------------|
D|-------------------------------------------------------------------|
A|-7-7----------------------------2-2-2-2----------------------------|
E|-----7-7-7-7-9-9-9-9-7-9-7--0-0---------4-4-4-4-2-4-2--------------|

G|---------------------------------------------------------------------------|
D|---------------------------------------------------------------------------|
A|-7-7----------------------------2-2-2-2------------------------------------|
E|-----7-7-7-7-9-9-9-9-7-9-7--0-0---------2-4-2-4-2-4-2----------------------|

[Chorus]

G|---------------9-----------------------------------------------9-------------------------------|
D|-------------7-----------------------------------------------7---------------------------------|
A|-9-9-------7----------9-9------------------------9-9-------7---------9-9-----------------------|
E|-----9-9-9-------7-7------9-9-9--4-2-4-2-4-2-4-2-----9-9-9-------7-7-----9-9-9-4-2-4-2-4-2-4-2-|

[Solo]

G|-------------------------------------------------------------------|
D|-------------------------------------------------------------------|
A|-7-7----------------------------2-2-2-2----------------------------|
E|-----7-7-7-7-9-9-9-9-7-9-7--0-0---------4-4-4-4-2-4-2--------------|

G|---------------------------------------------------------------------------|
D|---------------------------------------------------------------------------|
A|-7-7----------------------------2-2-2-2------------------------------------|
E|-----7-7-7-7-9-9-9-9-7-9-7--0-0---------2-4-2-4-2-4-2----------------------|

[Chorus]

G|---------------9-----------------------------------------------9-------------------------------|
D|-------------7-----------------------------------------------7---------------------------------|
A|-9-9-------7----------9-9------------------------9-9-------7---------9-9-----------------------|
E|-----9-9-9-------7-7------9-9-9--4-2-4-2-4-2-4-2-----9-9-9-------7-7-----9-9-9-4-2-4-2-4-2-4-2-|

[Solo/Outro]

G|---------------------------------------------------------------------------|
D|---------------------------------------------------------------------------|
A|-7-7----------------------------2-2-2-2------------------------------------|
E|-----7-7-7-7-9-9-9-9-7-9-7--0-0---------2-4-2-4-2-4-2----------------------|

G|---------------------------------------------------------------------------|
D|---------------------------------------------------------------------------|
A|-7-7----------------------------2-2-2-2------------------------------------|
E|-----7-7-7-7-9-9-9-9-7-9-7--0-0---------2-4-2-4-2-4-2----------------------|

G|---------------------------------------------------------------------------|
D|---------------------------------------------------------------------------|
A|-7-7----------------------------2-2-2-2------------------------------------|
E|-----7-7-7-7-9-9-9-9-7-9-7--0-0---------2-4-2-4-2-4-2----------------------|

G|---------------------------------------------------------------------------|
D|---------------------------------------------------------------------------|
A|-7-7----------------------------2-2-2-2------------------------------------|
E|-----7-7-7-7-9-9-9-9-7-9-7--0-0---------2-4-2-4-2-4-2----------------------|

G|---------------------------------------------------------------------------|
D|---------------------------------------------------------------------------|
A|-7-7----------------------------2-2-2-2------------------------------------|
E|-----7-7-7-7-9-9-9-9-7-9-7--0-0---------2-4-2-4-2-4-2----------------------|

G|----------------------------------------------------------------------------|
D|----------------------------------------------------------------------------|
A|-7-7----------------------------2-2-2-2-------------------------------------|
E|-----7-7-7-7-9-9-9-9-7-9-7--0-0---------2-4-2-4-2-4-2-2-4-2-4-2-4-2-4-2-4-2-|
Suggest correction
Give kudos to tab author, rate the tab!
1 2 3 4 5
comments
print report bad tab
guest
You may want to rate the tab now too:
select rating
Wanna post a correction for this tab? Suggest correction