Oops, an error
Loading. Please wait.

The Crawler Bass Tab

10 views 3 this week
no commentswrite comment
1 2 3 4 5
3 more votes to show rating
add to favorites
launch autoscroll
font size
0
reset
guitar tuner
Autoscroll
slow
fast
+/-
esc
set tempo
stop
Help us to improve Ultimate-Guitar.com Take our survey!
×
[Intro]

G|---------------------------------|-------------------------------------|
D|---------------------------------|-------------------------------------|
A|-2/4-4-4-4-4-4-4-----------------|-2/4-4-4-4-4-4-4---------------------|
E|-----------------0-0-0-0-0-0-0-0-|-----------------0-0-0-0-0-0-0-0-----|

G|---------------------------------|-------------------------------------|
D|---------------------------------|-------------------------------------|
A|-2/4-4-4-4-4-4-4-----------------|-2/4-4-4-4-4-4-4-----------------4---|
E|-----------------0-0-0-0-0-0-0-0-|-----------------0-0-0-0-0-0-0-0-----|

G|-------------------------------|---------------------------------------|
D|-------------------------------|---------------------------------------|
A|-4-4-4-4-4-4-4---2-2-2-2-5-2-4-|-4-4-4-4-4-4-4-4-4---2-2-2-2-5-2-4-----|
E|---------------0---------------|-------------------0-------------------|

G|-------------------------------|---------------------------------------|
D|-------------------------------|---------------------------------------|
A|-4-4-4-4-4-4-4---2-2-2-2-5-2-4-|-4-4-4-4-4-4-4-4-4---2-2-2-2-5-2-4-----|
E|---------------0---------------|-------------------0-------------------|

[Verse]

G|-------------------------------|---------------------------------------|
D|-------------------------------|---------------------------------------|
A|-4-4-4-4-4-4-4---2-2-2-2-5-2-4-|-4-4-4-4-4-4-4-4-4---2-2-2-2-5-2-4-----|
E|---------------0---------------|-------------------0-------------------|

G|-------------------------------|---------------------------------------|
D|-------------------------------|---------------------------------------|
A|-4-4-4-4-4-4-4---2-2-2-2-5-2-4-|-4-4-4-4-4-4-4-4-4---2-2-2-2-5-2-4-----|
E|---------------0---------------|-------------------0-------------------|

[Chorus]

G|-------------------------------------------|---------------------------------------------|
D|-------------------------------------------|---------------------------------------------|
A|-------------------------------------------|---------------------------------------------|
E|-2-2-2-5-5-5-2-2-2-0-0-4-4-4-4-4-4-4-4-4-4-|-2-2-2-5-5-5-2-2-2-0-0-4-4-4-4-4-4-4-4-4-4-4-|

G|-------------------------------|---------------------------------------|
D|-------------------------------|---------------------------------------|
A|-4-4-4-4-4-4-4---2-2-2-2-5-2-4-|-4-4-4-4-4-4-4-4-4---2-2-2-2-5-2-4-----|
E|---------------0---------------|-------------------0-------------------|

G|-------------------------------|---------------------------------------|
D|-------------------------------|---------------------------------------|
A|-4-4-4-4-4-4-4---2-2-2-2-5-2-4-|-4-4-4-4-4-4-4-4-4---2-2-2-2-5-2-4-----|
E|---------------0---------------|-------------------0-------------------|


[Verse]

G|-------------------------------|---------------------------------------|
D|-------------------------------|---------------------------------------|
A|-4-4-4-4-4-4-4---2-2-2-2-5-2-4-|-4-4-4-4-4-4-4-4-4---2-2-2-2-5-2-4-----|
E|---------------0---------------|-------------------0-------------------|

G|-------------------------------|---------------------------------------|
D|-------------------------------|---------------------------------------|
A|-4-4-4-4-4-4-4---2-2-2-2-5-2-4-|-4-4-4-4-4-4-4-4-4---2-2-2-2-5-2-4-----|
E|---------------0---------------|-------------------0-------------------|

[Chorus]

G|-------------------------------------------|---------------------------------------------|
D|-------------------------------------------|---------------------------------------------|
A|-------------------------------------------|---------------------------------------------|
E|-2-2-2-5-5-5-2-2-2-0-0-4-4-4-4-4-4-4-4-4-4-|-2-2-2-5-5-5-2-2-2-0-0-4-4-4-4-4-4-4-4-4-4-4-|

[Bridge]

G|---------------------------------|-------------------------------------|
D|---------------------------------|-------------------------------------|
A|-2/4-4-4-4-4-4-4-----------------|-2/4-4-4-4-4-4-4---------------------|
E|-----------------0-0-0-0-0-0-0-0-|-----------------0-0-0-0-0-0-0-0-----|

G|---------------------------------|-------------------------------------|
D|---------------------------------|-------------------------------------|
A|-2/4-4-4-4-4-4-4-----------------|-2/4-4-4-4-4-4-4---------------------|
E|-----------------0-0-0-0-0-0-0-0-|-----------------0-0-0-0-0-0-0-0-----|

G|---------------------------------|-------------------------------------|
D|---------------------------------|-------------------------------------|
A|-2/4-4-4-4-4-4-4-----------------|-2/4-4-4-4-4-4-4---------------------|
E|-----------------0-0-0-0-0-0-0-0-|-----------------0-0-0-0-0-0-0-0-----|

G|---------------------------------|-------------------------------------|
D|---------------------------------|-------------------------------------|
A|-2/4-4-4-4-4-4-4-----------------|-2/4-4-4-4-4-4-4---------------------|
E|-----------------0-0-0-0-0-0-0-0-|-----------------0-0-0-0-0-0-0-0-----|

G|-------------------------------------------|---------------------------------------------|
D|-------------------------------------------|---------------------------------------------|
A|-------------------------------------------|---------------------------------------------|
E|-2-2-2-5-5-5-2-2-2-0-0-4-4-4-4-4-4-4-4-4-4-|-2-2-2-5-5-5-2-2-2-0-0-4-4-4-4-4-4-4-4-4-4-4-|

[Outro]

G|-------------------------------|---------------------------------------|
D|-------------------------------|---------------------------------------|
A|-4-4-4-4-4-4-4---2-2-2-2-5-2-4-|-4-4-4-4-4-4-4-4-4---2-2-2-2-5-2-4-----|
E|---------------0---------------|-------------------0-------------------|


G|-------------------------------|-------------------------------------|
D|-------------------------------|-------------------------------------|
A|-4-4-4-4-4-4-4---2-2-2-2-5-2-4-|-4-4-4-4-4-4-4-4-4-------------4-----|
E|---------------0---------------|-------------------------------------|


************************************

| /   Slide up
Suggest correction
Give kudos to tab author, rate the tab!
1 2 3 4 5
comments
print report bad tab
guest
You may want to rate the tab now too:
select rating
Wanna post a correction for this tab? Suggest correction