Oops, an error
Loading. Please wait.

The Crawler Tab

43 views 3 this week
no commentswrite comment
1 2 3 4 5
3 more votes to show rating
add to favorites
launch autoscroll
font size
0
reset
how to read this tab
guitar tuner
Autoscroll
slow
fast
+/-
esc
set tempo
stop
Help us to improve Ultimate-Guitar.com Take our survey!
×
[Intro]

e|---------------------------------------------------------------------------|
B|---------------------------------------------------------------------------|
G|-4/6-6-6-6-6-6---------------4/6-6-6-6-6-6-6-------------------------------|
D|-4/6-6-6-6-6-6-2-2-2-2-2-2-2-4/6-6-6-6-6-6-6-2-2-2-2-2-2-2-----------------|
A|-2/4-4-4-4-4-4-2-2-2-2-2-2-2-2/4-4-4-4-4-4-4-2-2-2-2-2-2-2-----------------|
E|---------------0-0-0-0-0-0-0-----------------0-0-0-0-0-0-0-----------------|

e|---------------------------------------------------------------------------|
B|---------------------------------------------------------------------------|
G|-4/6-6-6-6-6-6---------------4/6-6-6-6-6-6-6---------------6---------------|
D|-4/6-6-6-6-6-6-2-2-2-2-2-2-2-4/6-6-6-6-6-6-6-2-2-2-2-2-2-2-6---------------|
A|-2/4-4-4-4-4-4-2-2-2-2-2-2-2-2/4-4-4-4-4-4-4-2-2-2-2-2-2-2-4---------------|
E|---------------0-0-0-0-0-0-0-----------------0-0-0-0-0-0-0-----------------|

e|---------------------------------------------------------------------------|
B|---------------------------------------------------------------------------|
G|-6-6-6-6-6-6-6---4-4-4-4-5-4-6--6-6-6-6-6-6-6-6---4-4-4-4-7-4-6------------|
D|-6-6-6-6-6-6-6---4-4-4-4-5-4-6--6-6-6-6-6-6-6-6---4-4-4-4-7-4-6------------|
A|-4-4-4-4-4-4-4---2-2-2-2-5-2-4--4-4-4-4-4-4-4-4---2-2-2-2-5-2-4------------|
E|---------------0--------------------------------0--------------------------|

e|---------------------------------------------------------------------------|
B|---------------------------------------------------------------------------|
G|-6-6-6-6-6-6-6---4-4-4-4-5-4-6--6-6-6-6-6-6-6-6---4-4-4-4-7-4-6------------|
D|-6-6-6-6-6-6-6---4-4-4-4-5-4-6--6-6-6-6-6-6-6-6---4-4-4-4-7-4-6------------|
A|-4-4-4-4-4-4-4---2-2-2-2-5-2-4--4-4-4-4-4-4-4-4---2-2-2-2-5-2-4------------|
E|---------------0--------------------------------0--------------------------|

[Verse]

e|---------------------------------------------------------------------------|
B|---------------------------------------------------------------------------|
G|-6-6-6-6-6-6-6---4-4-4-4-5-4-6--6-6-6-6-6-6-6-6---4-4-4-4-7-4-6------------|
D|-6-6-6-6-6-6-6---4-4-4-4-5-4-6--6-6-6-6-6-6-6-6---4-4-4-4-7-4-6------------|
A|-4-4-4-4-4-4-4---2-2-2-2-5-2-4--4-4-4-4-4-4-4-4---2-2-2-2-5-2-4------------|
E|---------------0--------------------------------0--------------------------|

e|---------------------------------------------------------------------------|
B|---------------------------------------------------------------------------|
G|-6-6-6-6-6-6-6---4-4-4-4-5-4-6--6-6-6-6-6-6-6-6---4-4-4-4-7-4-6------------|
D|-6-6-6-6-6-6-6---4-4-4-4-5-4-6--6-6-6-6-6-6-6-6---4-4-4-4-7-4-6------------|
A|-4-4-4-4-4-4-4---2-2-2-2-5-2-4--4-4-4-4-4-4-4-4---2-2-2-2-5-2-4------------|
E|---------------0--------------------------------0--------------------------|

[Chorus]

e|---------------------------------------------------------------------------------------|
B|---------------------------------------------------------------------------------------|
G|---------------------------------------------------------------------------------------|
D|-4-4-4/7-7-7-4-4-4-2-2-2-6-6-6-6-6-6-6-6-6-6-4-4-4/7-7-7-4-4-4-2-2-2-6-6-6-6-6-6-6-6-6-|
A|-4-4-4/7-7-7-4-4-4-2-2-2-6-6-6-6-6-6-6-6-6-6-4-4-4/7-7-7-4-4-4-2-2-2-6-6-6-6-6-6-6-6-6-|
E|-2-2-2/5-5-5-2-2-2-0-0-0-4-4-4-4-4-4-4-4-4-4-2-2-2/5-5-5-2-2-2-0-0-0-4-4-4-4-4-4-4-4-4-|

e|---------------------------------------------------------------------------|
B|---------------------------------------------------------------------------|
G|-6-6-6-6-6-6-6---4-4-4-4-5-4-6--6-6-6-6-6-6-6-6---4-4-4-4-7-4-6------------|
D|-6-6-6-6-6-6-6---4-4-4-4-5-4-6--6-6-6-6-6-6-6-6---4-4-4-4-7-4-6------------|
A|-4-4-4-4-4-4-4---2-2-2-2-5-2-4--4-4-4-4-4-4-4-4---2-2-2-2-5-2-4------------|
E|---------------0--------------------------------0--------------------------|

e|---------------------------------------------------------------------------|
B|---------------------------------------------------------------------------|
G|-6-6-6-6-6-6-6---4-4-4-4-5-4-6--6-6-6-6-6-6-6-6---4-4-4-4-7-4-6------------|
D|-6-6-6-6-6-6-6---4-4-4-4-5-4-6--6-6-6-6-6-6-6-6---4-4-4-4-7-4-6------------|
A|-4-4-4-4-4-4-4---2-2-2-2-5-2-4--4-4-4-4-4-4-4-4---2-2-2-2-5-2-4------------|
E|---------------0--------------------------------0--------------------------|

[Verse]

e|---------------------------------------------------------------------------|
B|---------------------------------------------------------------------------|
G|-6-6-6-6-6-6-6---4-4-4-4-5-4-6--6-6-6-6-6-6-6-6---4-4-4-4-7-4-6------------|
D|-6-6-6-6-6-6-6---4-4-4-4-5-4-6--6-6-6-6-6-6-6-6---4-4-4-4-7-4-6------------|
A|-4-4-4-4-4-4-4---2-2-2-2-5-2-4--4-4-4-4-4-4-4-4---2-2-2-2-5-2-4------------|
E|---------------0--------------------------------0--------------------------|

e|---------------------------------------------------------------------------|
B|---------------------------------------------------------------------------|
G|-6-6-6-6-6-6-6---4-4-4-4-5-4-6--6-6-6-6-6-6-6-6---4-4-4-4-7-4-6------------|
D|-6-6-6-6-6-6-6---4-4-4-4-5-4-6--6-6-6-6-6-6-6-6---4-4-4-4-7-4-6------------|
A|-4-4-4-4-4-4-4---2-2-2-2-5-2-4--4-4-4-4-4-4-4-4---2-2-2-2-5-2-4------------|
E|---------------0--------------------------------0--------------------------|

[Chorus]

e|---------------------------------------------------------------------------------------|
B|---------------------------------------------------------------------------------------|
G|---------------------------------------------------------------------------------------|
D|-4-4-4/7-7-7-4-4-4-2-2-2-6-6-6-6-6-6-6-6-6-6-4-4-4/7-7-7-4-4-4-2-2-2-6-6-6-6-6-6-6-6-6-|
A|-4-4-4/7-7-7-4-4-4-2-2-2-6-6-6-6-6-6-6-6-6-6-4-4-4/7-7-7-4-4-4-2-2-2-6-6-6-6-6-6-6-6-6-|
E|-2-2-2/5-5-5-2-2-2-0-0-0-4-4-4-4-4-4-4-4-4-4-2-2-2/5-5-5-2-2-2-0-0-0-4-4-4-4-4-4-4-4-4-|

Bridge

e|---------------------------------------------------------------------------|
B|---------------------------------------------------------------------------|
G|-4/6-6-6-6-6-6---------------4/6-6-6-6-6-6-6-------------------------------|
D|-4/6-6-6-6-6-6-2-2-2-2-2-2-2-4/6-6-6-6-6-6-6-2-2-2-2-2-2-2-----------------|
A|-2/4-4-4-4-4-4-2-2-2-2-2-2-2-2/4-4-4-4-4-4-4-2-2-2-2-2-2-2-----------------|
E|---------------0-0-0-0-0-0-0-----------------0-0-0-0-0-0-0-----------------|

e|---------------------------------------------------------------------------|
B|---------------------------------------------------------------------------|
G|-4/6-6-6-6-6-6---------------4/6-6-6-6-6-6-6-------------------------------|
D|-4/6-6-6-6-6-6-2-2-2-2-2-2-2-4/6-6-6-6-6-6-6-2-2-2-2-2-2-2-----------------|
A|-2/4-4-4-4-4-4-2-2-2-2-2-2-2-2/4-4-4-4-4-4-4-2-2-2-2-2-2-2-----------------|
E|---------------0-0-0-0-0-0-0-----------------0-0-0-0-0-0-0-----------------|

e|---------------------------------------------------------------------------|
B|---------------------------------------------------------------------------|
G|-4/6-6-6-6-6-6---------------4/6-6-6-6-6-6-6-------------------------------|
D|-4/6-6-6-6-6-6-2-2-2-2-2-2-2-4/6-6-6-6-6-6-6-2-2-2-2-2-2-2-----------------|
A|-2/4-4-4-4-4-4-2-2-2-2-2-2-2-2/4-4-4-4-4-4-4-2-2-2-2-2-2-2-----------------|
E|---------------0-0-0-0-0-0-0-----------------0-0-0-0-0-0-0-----------------|

e|---------------------------------------------------------------------------|
B|---------------------------------------------------------------------------|
G|-4/6-6-6-6-6-6---------------4/6-6-6-6-6-6-6-------------------------------|
D|-4/6-6-6-6-6-6-2-2-2-2-2-2-2-4/6-6-6-6-6-6-6-2-2-2-2-2-2-2-----------------|
A|-2/4-4-4-4-4-4-2-2-2-2-2-2-2-2/4-4-4-4-4-4-4-2-2-2-2-2-2-2-----------------|
E|---------------0-0-0-0-0-0-0-----------------0-0-0-0-0-0-0-----------------|

e|---------------------------------------------------------------------------------------|
B|---------------------------------------------------------------------------------------|
G|---------------------------------------------------------------------------------------|
D|-4-4-4/7-7-7-4-4-4-2-2-2-6-6-6-6-6-6-6-6-6-6-4-4-4/7-7-7-4-4-4-2-2-2-6-6-6-6-6-6-6-6-6-|
A|-4-4-4/7-7-7-4-4-4-2-2-2-6-6-6-6-6-6-6-6-6-6-4-4-4/7-7-7-4-4-4-2-2-2-6-6-6-6-6-6-6-6-6-|
E|-2-2-2/5-5-5-2-2-2-0-0-0-4-4-4-4-4-4-4-4-4-4-2-2-2/5-5-5-2-2-2-0-0-0-4-4-4-4-4-4-4-4-4-|

[Outro]

e|---------------------------------------------------------------------------|
B|---------------------------------------------------------------------------|
G|-6-6-6-6-6-6-6---4-4-4-4-5-4-6--6-6-6-6-6-6-6-6---4-4-4-4-7-4-6------------|
D|-6-6-6-6-6-6-6---4-4-4-4-5-4-6--6-6-6-6-6-6-6-6---4-4-4-4-7-4-6------------|
A|-4-4-4-4-4-4-4---2-2-2-2-5-2-4--4-4-4-4-4-4-4-4---2-2-2-2-5-2-4------------|
E|---------------0--------------------------------0--------------------------|

e|---------------------------------------------------------------------------|
B|---------------------------------------------------------------------------|
G|-6-6-6-6-6-6-6---4-4-4-4-5-4-6--6-6-6-6-6-6-6-6---------------6------------|
D|-6-6-6-6-6-6-6---4-4-4-4-5-4-6--6-6-6-6-6-6-6-6---------------6------------|
A|-4-4-4-4-4-4-4---2-2-2-2-5-2-4--4-4-4-4-4-4-4-4---------------4------------|
E|---------------0-----------------------------------------------------------|
 
| /   Slide up
Suggest correction
Give kudos to tab author, rate the tab!
1 2 3 4 5
comments
print report bad tab
guest
You may want to rate the tab now too:
select rating
Wanna post a correction for this tab? Suggest correction