Oops, an error
Loading. Please wait.

Whos Producing You bass

253 views 3 this week
no commentswrite comment
1 2 3 4 5
3 more votes to show rating
add to favorites
×
Save as Personal and add changes to this tab that will be seen only by you. Learn more ›
×
You can save this tab as Personal to edit and correct it or add notes. All changes will be seen only by you. Learn more »
launch autoscroll
font size
0
reset
guitar tuner
edit
Autoscroll
slow
fast
+/-
esc
set tempo
stop
Author
Difficulty
[Verse]

G|----------------|----------------|------------------|--------------------|----------------|
D|10--------------|10--8-----------|8-----------------|--------------------|----------------|
A|--------------10|--10----------8-|--8-10------------|8h10-10-------------|8h10-10---------|
E|----------------|----------------|--------------8h10|----------------8h10|----------------|x4

1.youve been restin baby on the side of the cross
im getting used to it its how people get off yeah
i should have felt dazed i should feel lingered on
its a shoe shine nation but the rating are soft now

2. the freak of nature hes not completely off
what could be better his ratings are soft yeah
he turns his socks around and calls them clean yeah
another day turning black into gold yeah


[Chorus]

G|----------------|----------------|----------------|------------------|
D|8-----------8-8-|----------------|----------------|------------------|
A|----------------|8-----------8-8-|10------------8h|10------------8h10|
E|----------------|----------------|----------8h10--|----------8h10----|
whos producing you your main man
sweet sweet love will shine and never dim yeah





********************************
|h   Hammer-on
********************************

            
            
Suggest correction
Creating personal tab
Creating personal tab
You can edit any tab online and save it as your Personal.

You can edit, replace or remove any tab part or add personal notes – all changes will be seen only by you.

Personal tabs can be accessed anytime from any device, even offline.
Learn more »
Give kudos to tab author, rate the tab!
1 2 3 4 5
comments
print report bad tab
guest
You may want to rate the tab now too:
select rating
Wanna post a correction for this tab? Suggest correction